Oops, an error
Loading. Please wait.
183,717 views 90 this week
31 commentsread comments
1 2 3 4 5
x 66
add to favorites
×
Save as Personal and add changes to this tab that will be seen only by you. Learn more ›
×
You can save this tab as Personal to edit and correct it or add notes. All changes will be seen only by you. Learn more »
launch autoscroll
font size
0
reset
how to read this tab
guitar tuner
edit
Autoscroll
slow
fast
+/-
esc
set tempo
stop
Author
Difficulty
intermediate
Billy gt 1 (EADGBE)
Benji gt 2(EADGBE)
Synyster Gates gt 3(EADGBE)


[Intro]
 Fade in volume swell  
    NH                 
e|-----|
B|- 7*-|
G|-----|
D|-----|
A|-----|
E|-----|

 Billy(intro and chorus riff)
e|-------------------------------------------------|
B|-------------------------------------------------|
G|-------------------------------------------------|
D|---88888888---44444444---------------------------|
A|---66666666---22222222---44444444---66666666-----|
E|-------------------------22222222---44444444-----|


e|-------------------------------------------------|
B|-------------------------------------------------|
G|-------------------------------------------------|
D|---88888888---44444444----------------------8----|
A|---66666666---22222222---4444444444444444---6----|
E|-------------------------2222222222222222---6----|

            Benji (intro chords)
   all chords are played 8 times
e|-------------------------------------------------|
B|-------------------------------------------------|
G|--15--16---15--13--------------------------------|
D|-------------------------------------------------|
A|--13--14---13--11--------------------------------|
E|-------------------------------------------------|

  all chords are played 8 times except the last 2
e|-------------------------------------------------|
B|-------------------------------------------------|
G|--15--16---18-----------------20-----------------|
D|-------------(16 times)---------(just once)------|
A|--13--14---16-----------------18-----------------|
E|-------------------------------------------------|

[Verse]
      Benji (verse)
e|-----------------------------------------------------------------------|
B|-----------------------------------------------------------------------|
G|-----------------------------------------------------------------------|
D|-----8---8--8-----8----8---8---------11-----------9--------8----8---8--|
A|--66--66--6----66---66---6-------9-9----9----8-8-----8--66---66---6----|
E|-----------------------------------------------------------------------|
Palm mute everything on the A string and leave everything else open

 Last time before pre chorus       
e|-----------------------------------------------------------------------|
B|-----------------------------------------------------------------------|
G|-------------------------------11-11-11-11--10-10-10-10-88888888-------|
D|-----8---8--8-----8----8---8---X--X--X--X---X--X--X--X--XXXXXXXX-------|
A|--66--66--6----66---66---6-----9--9--9--9---8—-8--8--8—-66666666-------|
E|-----------------------------------------------------------------------|

[Pre-Chorus]
         Billy(pre chorus) clean and chorus
e|-----------------------------------------------------------------------|
B|----------14-14--------14----14----------16-16------------16---16------|
G|-------13-----------13----13----------15--------------15-----15--------|
D|----11-----------11----------------13--------------13------------------|
A|-----------------------------------------------------------------------|
E|-----------------------------------------------------------------------|

 Benji(pre chorus)
e|----------------------------------------------------------|
B|----------------------------------------------------------|
G|-------6---6----------6---6----------8--8-----------8---8-|
D|----------------------------------------------------------|
A|---4444--4--4---4444----4---4--6666---6----6---6666---6--6|
E|----------------------------------------------------------|

e|----------------------------------------------------|
B|----------------------------------------------------|
G|----------------------------------------------------|
D|---4444444444444444-------6666666666666666----------|
A|---4444444444444444-------6666666666666666----------|
E|---2222222222222222-------4444444444444444----------|

[Chorus]
 Benji (Chorus)
e|-------------------------------------------------|
B|-------------------------------------------------|
G|-------------------------------------------------| (x2)
D|---88888888---44444444---------------------------|
A|---66666666---22222222---44444444---66666666-----|
E|-------------------------22222222---44444444-----|

  3rd time 
e|-------------------------------------------------|
B|-------------------------------------------------|
G|--------------(11’s not 1’s)---------------------|
D|---88888888---11111111---------------------------|
A|---66666666---99999999---44444444---66666666-----|
E|-------------------------22222222---44444444-----|

e|-------------------------------------------------|
B|-------------------------------------------------|
G|-------------------------------------------------| 
D|---88888888---44444444---------------------------|
A|---66666666---22222222---44444444---66666666-----|
E|-------------------------22222222---44444444-----|
       
              Billy (chorus) 
     listen really carefully to this part

             Distortion and chorus 
e|---------------------------------------------|
B|-------------16-16-------------16----16------|
G|-----------15---------------15----15---------|
D|---------13--------------13------------------|
A|---------------------------------------------|
E|---------------------------------------------|

e|---------------------------------------------|
B|----------------14-14--------14----14--------|
G|-------------13-----------13----13-----------|
D|----------11-----------11--------------------|
A|---------------------------------------------|
E|---------------------------------------------|
 simply repeat this riff till the chorus ends  

[Verse]
      Benji (verse)
e|-----------------------------------------------------------------------|
B|-----------------------------------------------------------------------|
G|-----------------------------------------------------------------------|
D|-----8---8--8-----8----8---8---------11-----------9--------8----8---8--|
A|--66--66--6----66---66---6-------9-9----9----8-8-----8--66---66---6----|
E|-----------------------------------------------------------------------|
Palm mute everything on the A string and leave everything else open

 Last time before pre chorus       
e|-----------------------------------------------------------------------|
B|-----------------------------------------------------------------------|
G|-------------------------------11-11-11-11--10-10-10-10-88888888-------|
D|-----8---8--8-----8----8---8---X--X--X--X---X--X--X--X--XXXXXXXX-------|
A|--66--66--6----66---66---6-----9--9--9--9---8—-8--8--8—-66666666-------|
E|-----------------------------------------------------------------------|

[Pre-Chorus]
         Billy(pre chorus) clean and chorus
e|-----------------------------------------------------------------------|
B|----------14-14--------14----14----------16-16------------16---16------|
G|-------13-----------13----13----------15--------------15-----15--------|
D|----11-----------11----------------13--------------13------------------|
A|-----------------------------------------------------------------------|
E|-----------------------------------------------------------------------|

 Benji(pre chorus)
e|----------------------------------------------------------|
B|----------------------------------------------------------|
G|-------6---6----------6---6----------8--8-----------8---8-|
D|----------------------------------------------------------|
A|---4444--4--4---4444----4---4--6666---6----6---6666---6--6|
E|----------------------------------------------------------|

e|----------------------------------------------------|
B|----------------------------------------------------|
G|----------------------------------------------------|
D|---4444444444444444-------6666666666666666----------|
A|---4444444444444444-------6666666666666666----------|
E|---2222222222222222-------4444444444444444----------|

[Chorus]
 Benji (Chorus)
e|-------------------------------------------------|
B|-------------------------------------------------|
G|-------------------------------------------------| (x2)
D|---88888888---44444444---------------------------|
A|---66666666---22222222---44444444---66666666-----|
E|-------------------------22222222---44444444-----|

  3rd time 
e|-------------------------------------------------|
B|-------------------------------------------------|
G|--------------(11’s not 1’s)---------------------|
D|---88888888---11111111---------------------------|
A|---66666666---99999999---44444444---66666666-----|
E|-------------------------22222222---44444444-----|

e|-------------------------------------------------|
B|-------------------------------------------------|
G|-------------------------------------------------| 
D|---88888888---44444444---------------------------|
A|---66666666---22222222---44444444---66666666-----|
E|-------------------------22222222---44444444-----|
       
              Billy (chorus) 
     listen really carefully to this part

             Distortion and chorus 
e|---------------------------------------------|
B|-------------16-16-------------16----16------|
G|-----------15---------------15----15---------|
D|---------13--------------13------------------|
A|---------------------------------------------|
E|---------------------------------------------|

e|---------------------------------------------|
B|----------------14-14--------14----14--------|
G|-------------13-----------13----13-----------|
D|----------11-----------11--------------------|
A|---------------------------------------------|
E|---------------------------------------------|
 simply repeat this riff till the chorus ends  


 It then repeats this twice
e|-------------------------------------------------|
B|-------------------------------------------------|
G|--------------(11’s not 1’s)---------------------|
D|---88888888---11111111---------------------------|
A|---66666666---99999999---44444444---66666666-----|
E|-------------------------22222222---44444444-----|
 and hold this chord 
|---------------|
|---------------|
|-11------------|
|-11------------|
|-9-------------|
|---------------|

[Solo]

Synyster Gates 

The start is hard to figure out if you don’t have a 
whammy bar which I don’t. So I use an octave pedal
and have it on an octave down 

Listen to the solo before you try it surely the first two parts 
Will stick in your head because they mimic the vocals but listen
To the rest of it.

e|-------------------------------------------------|
B|-7*----------------------------------------------|
G|-5*----------------------------------------------|
D|-------------------------------------------------|
A|-------------------------------------------------|
E|-------------------------------------------------|
 
The Harmonics are done a whole octave down and 
then released up and vibrato til    
 
e|-------—-------------------------------------------|
B|-----------14~-----12-11----9----9----9h11p9-------|
G|---11~------------------------11---11--------11----|
D|-------11------------------------------------------|
A|---------------------------------------------------|
E|---------------------------------------------------|

e|--------------------------14-----------------------|
B|----------14-14b16-14~-------11-14p11-14-14b16~----|
G|--11~----------------------------------------------|
D|------11-------------------------------------------|
A|---------------------------------------------------|
E|---------------------------------------------------|

e|--11---------------------------------------------|
B|-----14-12-11~-----9-----9------9h11-------------|
G|----------------11----11----11-------------------|
D|-------------------------------------------------|
A|-------------------------------------------------|
E|-------------------------------------------------|

        Not sure about this part……                 trem pick 
e|------11-------------11--------------14----14---------------------|
B|---------14-------------14--------14----14------14p11h14p11h14p11-|
G|------------11-------------11-------------------------------------|
D|---11-------------11----------------------------------------------|
A|------------------------------------------------------------------|
E|------------------------------------------------------------------|

e|-----------------13b~--------16b~-----13-14-13--------------------|
B|---14--14b~p11----------14---------------------14----14-11-14-16~-|
G|--------------------------------------------------11--------------|
D|------------------------------------------------------------------|
A|------------------------------------------------------------------|
E|------------------------------------------------------------------|


************************************

| *  Natural harmonic
| h  Hammer-on
| p  Pull-off
| ~  Vibrato
| b  Bend

************************************

            
            
Suggest correction
Creating personal tab
Creating personal tab
You can edit any tab online and save it as your Personal.

You can edit, replace or remove any tab part or add personal notes – all changes will be seen only by you.

Personal tabs can be accessed anytime from any device, even offline.
Learn more »
comments
print report bad tab
31 comments total. Showing first comments.
0 reply
Charmedavril999 10 Jan 29, 2007 10:09 AM

do you have chords for an acoustic river? with one guitar?

0 reply
The Mizfit 81 Feb 06, 2007 03:51 PM

great job, can someone put it on guitar pro though?

0 reply
irontires 10 Feb 15, 2007 07:44 AM

awesome job with this tab, keep up the great work!

guest
You may want to rate the tab now too:
select rating
Wanna post a correction for this tab? Suggest correction