Oops, an error
Loading. Please wait.
5,297 views 1 this week
2 commentsread comments
1 2 3 4 5
2 more votes to show rating
add to favorites
×
Save as Personal and add changes to this tab that will be seen only by you. Learn more ›
×
You can save this tab as Personal to edit and correct it or add notes. All changes will be seen only by you. Learn more »
launch autoscroll
font size
0
reset
how to read this tab
guitar tuner
edit
Autoscroll
slow
fast
+/-
esc
set tempo
stop
Author
Difficulty
Tabbers playing skills
intermediate +
Good Charlotte - The River
Written By - Ghost:o
From TG

Intro:

E|---------------------------------------------------|
B|o--------------------------------------------------|
G|--9-9-9-9-9-9-9-9--5-5-5-5-5-5-5-5--4-4-4-4-4-4-4--|
D|--9-9-9-9-9-9-9-9--5-5-5-5-5-5-5-5--5-5-5-5-5-5-5--|
A|o-7-7-7-7-7-7-7-7--3-3-3-3-3-3-3-3--5-5-5-5-5-5-5--|
E|--0-0-0-0-0-0-0-0--3-3-3-3-3-3-3-3--3-3-3-3-3-3-3--|

E|----------------|-------------|
B|---------------o|-------------|
G|----------------|--9\---------|
D|-7-7-7-7-7-7-7--|--9\---------|
A|-7-7-7-7-7-7-7-o|--7\---------|
E|-5-5-5-5-5-5-5--|--7\---------|

Intro (Octaves Melody)

E|-----------------------------------------------------|
B|--12--12--12--12--12--12--12--12--13--13--13--13--13-|
G|-----------------------------------------------------|
D|--9---9---9---9---9---9---9---9---10--10--10--10--10-|
A|-----------------------------------------------------|
E|-----------------------------------------------------|

E|-----------------------------------------------------|
B|--13--13--13--12--12--12--12--12--12--12--12--10--10-|
G|-----------------------------------------------------|
D|--10--10--10--9---9---9---9---9---9---9---9---7---7--|
A|-----------------------------------------------------|
E|-----------------------------------------------------|

E|-----------------------------------------------------|
B|--10--10--10--10--10--10--15--15--15--15--15--15--15-|
G|-----------------------------------------------------|
D|--7---7---7---7---7---7---12--12--12--12--12--12--12-|
A|-----------------------------------------------------|
E|-----------------------------------------------------|

E|-----------------------------------------------------|
B|--15--15--15--15--15--15--15--15--15--17\------------|
G|-----------------------------------------------------|
D|--12--12--12--12--12--12--12--12--12--14\------------|
A|-----------------------------------------------------|
E|-----------------------------------------------------|

Verse

E|-----------------------------------------------------|
B|-----------------------------------------------------|
G|-----------------------------------------------------|
D|----------9----------9------9-----------9---------9--|
A|--7---7------7---7-------7------7---7------7---7-----|
E|-----------------------------------------------------|

E|-----------------------------------------------------|
B|o----------------------------------------------------|
G|-----------------------------------------------------|
D|-----9------------12----------------12---------------|
A|o-7-----10---10-------10----9---9--------9----7----7-|
E|-----------------------------------------------------|

E|-------------------------------|---------------------|
B|------------------------------o|---------------------|
G|-------------------------------|-12--12--12--12--11--|
D|---9-----------9-----------9---|---------------------|
A|-------7---7-------7---7------o|-10--10--10--10--9---|
E|-------------------------------|---------------------|

E|--------------------------------------------------|
B|--------------------------------------------------|
G|--11--11--11--9---9---9---9---9---9---9---9-------|
D|--------------------------------------------------|
A|--9---9---9---7---7---7---7---7---7---7---7-------|
E|--------------------------------------------------|

Pre-chorus

E|-----------------------------------------------------|
B|-----------------------------------------------------|
G|-----------------------------------------------------|
D|-----------12----------12------12----------12--------|
A|---10--10------10--10------10------10--10------10--10|
E|-----------------------------------------------------|
Pm|  ------      ------      --      ------      ------|

E|-----------------------------------------------------|
B|-----------------------------------------------------|
G|-----------------------------------------------------|
D|--12------12----------14----------14------14---------|
A|------10------12--12------12--12------12-------12--12|
E|-----------------------------------------------------|
Pm|     --      ------      ------      --      -------|

E|-------|----------------------------------------------|
B|-------|----------------------------------------------|
G|-------|--4-4-4-4-4---4-4-4-4-4-4-4-4-4-4--5--5-5-5-5-|
D|---14--|--5-5-5-5-5---5-5-5-5-5-5-5-5-5-5--7--7-7-7-7-|
A|-------|--5-5-5-5-5---5-5-5-5-5-5-5-5-5-5--7--7-7-7-7-|
E|-------|--3-3-3-3-3---3-3-3-3-3-3-3-3-3-3--5--5-5-5-5-|

E|-----------------------------|
B|-----------------------------|
G|--5-5-5---5-5-5-5-5-5--------|
D|--7-7-7---7-7-7-7-7-7--------|
A|--7-7-7---7-7-7-7-7-7--------|
E|--5-5-5---5-5-5-5-5-5--------|

Chorus Arpeggios

E|-------------------12---------------------------------|
B|o--------10------------------10------------10---------|
G|----12--------12--------12-----------12-----------12--|
D|------------------------------------------------------|
A|o-----------------------------------------------------|
E|------------------------------------------------------|

E|---12----------------------------10-------------------|
B|-------------10--------10------------------10-------8-|
G|--------12--------12--------12--------12--------9-----|
D|------------------------------------------------------|
A|------------------------------------------------------|
E|------------------------------------------------------|

E|------7-----------|----------------7-----------|
B|--------------8--o|--------8---------------8---|
G|--9-------9-------|----9-------9-------9-------|
D|------------------|----------------------------|
A|-----------------o|----------------------------|
E|------------------|----------------------------|

Bridge

E|-------------------------------------------|
B|-------------------------------------------|
G|--0----------------------------------------|
D|--0----------------------------------------|
A|-------------------------------------------|
E|-------------------------------------------|

w.bar [-5]     [-3]    [-1]  [0]    [-1][0]   [-1][0]
E|-----------------------------------------------------|
B|-----------------------------------------------------|
G|----[5]*---------------------------------------------|
D|-----------------------------------------------------|
A|-----------------------------------------------------|
E|-----------------------------------------------------|

    [-1][0]   [-1][0]    [-1][0]    [-1][0]
E|-------------------------------------------|
B|-------------------------------------------|
G|-------------------------------------------|
D|-------------------------------------------|
A|-------------------------------------------|
E|-------------------------------------------|

Solo

E|----------------10----8/10--7---7~~~~---0h5--5--3--5--|
B|--3/5~~~----------------------------------------------|
G|------------7-----------------------------------------|
D|------------------------------------------------------|
A|------------------------------------------------------|
E|------------------------------------------------------|

E|--3--/7---5--3-----------------/10-----10BU(12)-------|
B|-----------------8~~~~--------------------------------|
G|-------------------------7\---------------------------|
D|------------------------------------------------------|
A|------------------------------------------------------|
E|------------------------------------------------------|

E|--10~~/15---15--------------------------------------|
B|------------------12-----12--15---12---15BU)17)~~~--|
G|----------------------------------------------------|
D|----------------------------------------------------|
A|----------------------------------------------------|
E|----------------------------------------------------|

E|------------------------------------------------------|
B|---15BU(17)BD(15)--------13----12---------------------|
G|--------------------12--------------14--12--14--12/14-|
D|------------------------------------------------------|
A|------------------------------------------------------|
E|------------------------------------------------------|

E|------------------------------17--15--17--15--------|
B|--12--15--17--15----15-----15----------------17\15--|
G|----------------------------------------------------|
D|-----------------12----17---------------------------|
A|----------------------------------------------------|
E|----------------------------------------------------|
                                  (RePick)
E|-----------------------------------------------------|
B|--15---12---------15--15BU17~~~~----(17)BD(15)--12---|
G|----------14--12-------------------------------------|
D|-----------------------------------------------------|
A|-----------------------------------------------------|
E|-----------------------------------------------------|

E|--14BU(15)-----------------17BU(19)---14--15--14-----|
B|-------------15--------15-------------------------15-|
G|-----------------------------------------------------|
D|------------------17---------------------------------|
A|----------------------------------------------------|
E|----------------------------------------------------|

E|---------------------------------------|
B|------15------15BU(17)~~~~---(17)\-----|
G|--12------12---------------------------|
D|---------------------------------------|
A|---------------------------------------|
E|---------------------------------------|

            
            
Suggest correction
Creating personal tab
Creating personal tab
You can edit any tab online and save it as your Personal.

You can edit, replace or remove any tab part or add personal notes – all changes will be seen only by you.

Personal tabs can be accessed anytime from any device, even offline.
Learn more »
Give kudos to tab author, rate the tab!
1 2 3 4 5
comments
print report bad tab
2 comments total.
0 reply
aeronowak4tkd 10 Oct 23, 2008 01:56 PM

quick question. before the solo when syn does the whammy. how you you play the note in brackets. the note thats like this [5]*. how do you play that. also how do you know what the whammy is like. you have like degrees but can you elaborate that more please. thanks.

0 reply
Ghost:o 118 Jan 16, 2009 05:15 AM

There harmonics, and just play with your whammy and you'll figure out the sound. :)

guest
You may want to rate the tab now too:
select rating
Wanna post a correction for this tab? Suggest correction