Oops, an error
Loading. Please wait.

The Chronicles Of Life And Death solo tab

version 2
version 2

Solo

Interactive

581 views 1 this week
3 commentsread comments
1 2 3 4 5
2 more votes to show rating
add to favorites
×
Save as Personal and add changes to this tab that will be seen only by you. Learn more ›
×
You can save this tab as Personal to edit and correct it or add notes. All changes will be seen only by you. Learn more »
launch autoscroll
font size
0
reset
how to read this tab
guitar tuner
edit
Autoscroll
slow
fast
+/-
esc
set tempo
stop
|-------------------------|
|-------------------------|
|-------------------------|
|--9-7-5--7-5-4--5-4-2----|
|7-------5------3-----3-5-|
|-------------------------|

|-------------------------|
|-------------------------|
|-------------------------|
|--9-7-5--7-5-4--5-4-2----|
|7-------5------3-----3-5-|
|-------------------------|

|----------------------------|
|----------------------------|
|9-11-12-10-9-9-14-12-11-9-8-|
|x-x--x--x--x-x-x--x--x--x-x-|
|7-9--10-9--7-7-12-10-9--7-6-|
|----------------------------|

|--------------|
|--------------|
|--------------|
|-9-7-5--7-5-4-|
|7------5------|
|--------------|

|------------------|
|------------------|
|10----14----17----|
|x--x9-x--x5-x--x5-|
|8-----12----15----|
|------------------|
this should be pretty close 
it doesn't need to be down a half step for the solo but it does for the rest of the song
GOOD CHARLOTTE ROX MY SOX!! =:P

            
            
Suggest correction
Creating personal tab
Creating personal tab
You can edit any tab online and save it as your Personal.

You can edit, replace or remove any tab part or add personal notes – all changes will be seen only by you.

Personal tabs can be accessed anytime from any device, even offline.
Learn more »
Give kudos to tab author, rate the tab!
1 2 3 4 5
comments
print report bad tab
3 comments total.
0 reply
GoodCharlotte92 122 Dec 05, 2005 10:17 AM

what do u think?
=:)
im amazed that they finally submeted one of my tabs
P.S.- dont put comments bout GC bein' bad or dumb junk like that

0 reply
GoodCharlotte92 122 Dec 08, 2005 09:37 AM

thats submited
sorry

0 reply
GoodCharlotte92 122 Jul 02, 2006 11:33 AM

mistake!it should be:
e|----------------------------|
B|----------------------------|
G|9-12-11-12-9-9-14-12-11-9-8-|
D|x-x--x--x--x-x-x--x--x--x-x-|
A|7-10-9--10-7-7-12-10-9--7-6-|
E|----------------------------|

guest
You may want to rate the tab now too:
select rating
Wanna post a correction for this tab? Suggest correction