Oops, an error
Loading. Please wait.

My Only bass

version 3
version 3

Whole song

Interactive

778 views 1 this week
2 commentsread comments
1 2 3 4 5
1 last vote to show rating
add to favorites
×
Save as Personal and add changes to this tab that will be seen only by you. Learn more ›
×
You can save this tab as Personal to edit and correct it or add notes. All changes will be seen only by you. Learn more »
launch autoscroll
font size
0
reset
guitar tuner
edit
Autoscroll
slow
fast
+/-
esc
set tempo
stop
I noticed wile playing this song that it sounded a bit.. off
So i changed the 4s to 5s.
It made it sound way better when i was jamming with my best friend who's a guitarist.

Artist: Goodnight Nurse
Song: My Only
Tuning: Drop D (DADG)

Intro: Guitar first then bass and drums kick in.

G-----------------------------------------------------------------|x2
D-----------------------------------------------------------------|x2
A----------33333333---------22222222------------------------------|x2
D-22222222---------55555555---------------------------------------|x2

Verse 1:Bass kicks in halfway through verse

G-----------------------------------------------------------------|x1
D--------------------554422---------554422------------------------|x1
A----------33333333---------22------------------------------------|x1
D-22222222---------44---------------------------------------------|x1

G-----------------------------------------------------------------|x1
D-----------------------------------------------------------------|x1
A----------33333333----------2------------------------------------|x1
D-22222222----------55555555--------------------------------------|x1


Chorus:

G-----------------------------------------------------------------|x2
D-----------------------------------------------------------------|x2
A----------33333333----------22222222-----------------------------|x2
D-22222222----------55555555--------------------------------------|x2

Intro x1

Verse 2: bass kicks in second time

G-----------------------------------------------------------------|x1
D---------------------554422---554422-----------------------------|x1
A----------3~----------------22-----------------------------------|x1
D-2~----------------44--------------------------------------------|x1

G-----------------------------------------------------------------|x1
D-----------------------------------------------------------------|x1
A----------33333333----------22222222-----------------------------|x1
D-2-----------------55555555--------------------------------------|x1

G-----------------------------------------------------------------|x1
D-----------------------------------------------------------------|x1
A----------33333333----------2------------------------------------|x1
D-22222222----------55555555--------------------------------------|x1

Chorus:

G-----------------------------------------------------------------|x2
D-----------------------------------------------------------------|x2
A----------33333333----------22222222-----------------------------|x2
D-22222222----------55555555--------------------------------------|x2

Guitar Solo:

G-----------------------------------------------------------------|x2
D-----------------------------------------------------------------|x2
A----------33333333----------22222222-----------------------------|x2
D-22222222----------55555555--------------------------------------|x2

G-----------------------------------------------------------------|x2
D-----------------------------------------------------------------|x2
A---------3-3-3-3---------2-2-2-2---------------------------------|x2
D-2-2-2-2---------5-5-5-5-----------2~(second time only)----------|x2

No Bass For A Bit

G-----------------------------------------------------------------|x2
D-----------------------------------------------------------------|x2
A-----------------------------------------------------------------|x2
D-0~--------------------------------------------------------------|x2

Chorus/Outro

G-----------------------------------------------------------------|x4
D-----------------------------------------------------------------|x4
A----------33333333----------22222222-----------------------------|x4
D-22222222----------55555555--------------------------------------|x4

End On

G-----------|
D-----------|
A-----------|
D-2~~~~~~---|


Comment if you find any problems

            
            
Suggest correction
Creating personal tab
Creating personal tab
You can edit any tab online and save it as your Personal.

You can edit, replace or remove any tab part or add personal notes – all changes will be seen only by you.

Personal tabs can be accessed anytime from any device, even offline.
Learn more »
Give kudos to tab author, rate the tab!
1 2 3 4 5
comments
print report bad tab
2 comments total.
0 reply
fenderbassdude 76 Feb 01, 2010 04:25 PM

For the fill it's not 4 fret but the 5th one on the D string.
Other than that perfect tab man!

0 reply
ChloeRockChick 62 Jul 28, 2010 06:58 PM

Thanks man :)

guest
You may want to rate the tab now too:
select rating
Wanna post a correction for this tab? Suggest correction