Oops, an error
Loading. Please wait.

My Only tab

version 1
version 1

Whole song

Interactive

5,402 views 1 this week
1 commentread comment
1 2 3 4 5
3 more votes to show rating
add to favorites
×
Save as Personal and add changes to this tab that will be seen only by you. Learn more ›
×
You can save this tab as Personal to edit and correct it or add notes. All changes will be seen only by you. Learn more »
launch autoscroll
font size
0
reset
how to read this tab
guitar tuner
edit
Autoscroll
slow
fast
+/-
esc
set tempo
stop
Author
this is a rare tab so if u listen to goodnight nurse i hope ull find this accurate, now
ive fixed it its ab 99% the only part a little off is in the solo the 5 on the g string
go that long but i cant find the right change. im pretty sure it is o yeah its in drop D 
it sounds alright to play like this
if u have any suggestions e-mail me leadguitar4291@aim.com ,comment! the 2nd guitar part
bass, sorry ab the confusion

INTRO / MAIN RIFF/CHORUS:
e--------------------------------------------------------------------|
B-5-5-8-7-5-5-8-7-8-8-7-5-7-7-5-4------------------------------------|
G--4-4-4-4-5-5-5-5-5-5-5-5-5-5-5-------------------------------------|
D--------------------------------------------------------------------|
A--------------------------------------------------------------------|
E--------------------------------------------------------------------|
play this 5 times- and any time for the chorus- i know its a tiny bit off but its a ton closer

VERSE
e-------------------------------------------------------------------------|
B-------------------------------------------------------------------------|
G--------------------5-5-5-5-5-5-5-5--------------------------------------|
D--2-2-2-2-2-2-2-2---5-5-5-5-5-5-5-5---5-5-5-5-5-5-5-5---7-7-7-7-7-7-7-7--|
A--2-2-2-2-2-2-2-2---3-3-3-3-3-3-3-3---5-5-5-5-5-5-5-5---7-7-7-7-7-7-7-7--|
E--0-0-0-0-0-0-0-0---------------------3-3-3-3-3-3-3-3---5-5-5-5-5-5-5-5--|
this riff is palm muted most of the time listen to the song for the right timing- this
the perfect thing


SOLO:
e---------------------------------------------|
B---------------------------------------------|
G---------------------------------------------|
D---------------------------9--9--------------|
A-12--10---------12--10----------10--12-10-9--|
E---------7--8--------------------------------| play this 5 times- this is the easiest
to play it

            
            
Suggest correction
Creating personal tab
Creating personal tab
You can edit any tab online and save it as your Personal.

You can edit, replace or remove any tab part or add personal notes – all changes will be seen only by you.

Personal tabs can be accessed anytime from any device, even offline.
Learn more »
Give kudos to tab author, rate the tab!
1 2 3 4 5
comments
print report bad tab
1 comment total.
0 reply
jakexcore 41 Aug 13, 2006 04:06 PM

Great tab dude! Try adding the little parts (like the rhythm under the solo) to make it easier.

Like, play this at half a beat over the solo, you can figure out the timing:
e-----------------------------------------------------------------|
B-----------------------------------------------------------------|
G-------------5-5-5-5---------------------------------------------|
D--2-2-2-2----5-5-5-5---5-5-5-5---7-7-7-7-------------------------|X2
A--2-2-2-2----3-3-3-3---5-5-5-5---7-7-7-7-------------------------|
E--0-0-0-0--------------3-3-3-3---5-5-5-5-------------------------|

on second time let
7
7
5
ring

guest
You may want to rate the tab now too:
select rating
Wanna post a correction for this tab? Suggest correction