Oops, an error
Loading. Please wait.

Unspoken Feelings tab

version 1
version 1

Whole song

1,215 views 1 this week
no commentswrite comment
1 2 3 4 5
2 more votes to show rating
add to favorites
×
Save as Personal and add changes to this tab that will be seen only by you. Learn more ›
×
You can save this tab as Personal to edit and correct it or add notes. All changes will be seen only by you. Learn more »
launch autoscroll
font size
0
reset
how to read this tab
guitar tuner
edit
Autoscroll
slow
fast
+/-
esc
set tempo
stop
Author
hey people, this is the very first tab i`ve ever entered. um`, so far, this sounds WAY 
accurate than the first time i tried to play it. I wasn`t very good at playing at the tim 
now i`m getting better. anyways, try this out and let me know if it sounds good.


INTRO/CHORUS/OUTRO

       G   D      G          G   D      G
E:----3-3---2----3-3-4-6----3-3---1----3-3-6-4-|
B:---3-3-3-3----3-3-3------3-3-3-2----3-3-3----|
G:---------------------------------------------|
D:-----------------------0----------3----------|
A:------------2--------------------------------|
E:-3-------------------------------------------|

VERSE

E:-3---|---3-|--3--|-5-3--|
B:--3--|-3---|-3---|----3-|
G:---0-|--0--|---0-|------|
D:-----|-----|-----|------|
A:-----|-----|-----|------|
E:-----|-----|-----|------|

BASS


E:-----------|-----------|-----------|-----------|
B:-----------|-----------|-----------|-----------|
G:-----------|-----------|-----------|-----------|
D:-----------|-----------|-0-*-0-0-0-|-2-*-2-2-2-|
A:-----------|-2-*-2-2-2-|-----------|-----------|
E:-3-*-3-3-3-|-----------|-----------|-----------|


http://www.myspace.com/officialgoonies
http://www.soundclick.com/gooniesquad

            
            
Suggest correction
Creating personal tab
Creating personal tab
You can edit any tab online and save it as your Personal.

You can edit, replace or remove any tab part or add personal notes – all changes will be seen only by you.

Personal tabs can be accessed anytime from any device, even offline.
Learn more »
Give kudos to tab author, rate the tab!
1 2 3 4 5
comments
print report bad tab
guest
You may want to rate the tab now too:
select rating
Wanna post a correction for this tab? Suggest correction