Oops, an error
Loading. Please wait.

Andromeda bass

version 2
version 2

Whole song

  • Obviously there is no bass guitar in the song. Thi... Show more
  • Included timing, open string playing, and notes to... Show more
508 views 9 this week
no commentswrite comment
1 2 3 4 5
1 last vote to show rating
add to favorites
×
Save as Personal and add changes to this tab that will be seen only by you. Learn more ›
×
You can save this tab as Personal to edit and correct it or add notes. All changes will be seen only by you. Learn more »
launch autoscroll
font size
0
reset
guitar tuner
edit
Autoscroll
slow
fast
+/-
esc
set tempo
stop
About this tab version
Included timing, open string playing, and notes to play in the interludes, as well as the synth fill. Was this info helpful? Yes No
[Main Riff]
   1 + 2 + 3 + 4 +   1 + 2 + 3 + 4 +   1 + 2 + 3 + 4 +   1 + 2 + 3 + 4 +
G|-----------------|-----------------|-----------------|-----------------|
D|-0---0-----2---0-|-----0---2-2-0---|-----------------|-----------------|
A|-------------3---|---------------3-|-0---0-----2---0-|-----0---2-2-0-2-|
E|-----------------|-----------------|-------------3---|-----------------| (x6)

[Pre-Chorus]
(00:48)
   1 + 2 + 3 + 4 +   1 + 2 + 3 + 4 +
G|-----------------|-----------------|
D|-----------------|-----------------|
A|(8)--------------|-----------------|
E|-----------------|-----------------|

   1 + 2 + 3 + 4 +   1 + 2 + 3 + 4 +
G|-----------------|-----------------|
D|-----------------|-----------------|
A|(7)--------------|-----------------|
E|-----------------|-----------------|

   1 + 2 + 3 + 4 +   1 + 2 + 3 + 4 +
G|-----------------|-----------------|
D|-----------------|-----------------|
A|(8)--------------|-----------------|
E|-----------------|-----------------|

   1 ^ + ^ 2 ^ + ^ 3 ^ + ^ 4 ^ + ^   1 ^ + ^ 2 ^ + ^ 3 ^ + ^ 4 ^ + ^
G|---------------------------------|---------------------------------|
D|-----10------10------10------10--|-----10------10------10----------|
A|-12------12------12------12------|-12------12------12------12\-----|
E|---------------------------------|---------------------------------|

[Main Riff]
   1 + 2 + 3 + 4 +   1 + 2 + 3 + 4 +   1 + 2 + 3 + 4 +   1 + 2 + 3 + 4 +
G|-----------------|-----------------|-----------------|-----------------|
D|-0---0-----2---0-|-----0---2-2-0---|-----------------|-----------------|
A|-------------3---|---------------3-|-0---0-----2---0-|-----0---2-2-0-2-|
E|-----------------|-----------------|-------------3---|-----------------| (x8)

[Pre-Chorus
(02:01)
   1 + 2 + 3 + 4 +   1 + 2 + 3 + 4 +
G|-----------------|-----------------|
D|-----------------|-----------------|
A|(8)--------------|-----------------|
E|-----------------|-----------------|

   1 + 2 + 3 + 4 +   1 + 2 + 3 + 4 +
G|-----------------|-----------------|
D|-----------------|-----------------|
A|(7)--------------|-----------------|
E|-----------------|-----------------|

   1 + 2 + 3 + 4 +   1 + 2 + 3 + 4 +
G|-----------------|-----------------|
D|-----------------|-----------------|
A|(8)--------------|-----------------|
E|-----------------|-----------------|

   1 ^ + ^ 2 ^ + ^ 3 ^ + ^ 4 ^ + ^   1 ^ + ^ 2 ^ + ^ 3 ^ + ^ 4 ^ + ^
G|---------------------------------|---------------------------------|
D|---------------------------------|-----10------10------10----------|
A|(10)-----------------------------|-12------12------12------12\-----|
E|---------------------------------|---------------------------------|

[Main Riff]
   1 + 2 + 3 + 4 +   1 + 2 + 3 + 4 +   1 + 2 + 3 + 4 +   1 + 2 + 3 + 4 +
G|-----------------|-----------------|-----------------|-----------------|
D|-0---0-----2---0-|-----0---2-2-0---|-----------------|-----------------|
A|-------------3---|---------------3-|-0---0-----2---0-|-----0---2-2-0-2-|
E|-----------------|-----------------|-------------3---|-----------------| (x4)

[Outro]
(02:46)
   1 + 2 + 3 + 4 +   1 + 2 + 3 + 4 +   1 + 2 + 3 + 4 +   1 + 2 + 3 + 4 +
G|-----------------|-----------------|-----------------|-----------------|
D|-----------------|-----------------|-----------------|-----------------|
A|(8)--------------|-----------------|(10)-------------|-----------------|
E|-----------------|-----------------|-----------------|-----------------| (x3)

   1 + 2 + 3 + 4 +   1 + 2 + 3 + 4 +   1 + 2 + 3 + 4 +   1 + 2 + 3 + 4 +
G|-----------------|-----------------|-----------------|-----------------|
D|-0---0-----2---0-|-----0---2-2-0---|-----------------|-----------------|
A|-------------3---|---------------3-|-0---0-----2---0-|-----0---2-2-0-2-|
E|-----------------|-----------------|-------------3---|-----------------|


************************************

| \   Slide down

************************************

            
            
Suggest correction
Creating personal tab
Creating personal tab
You can edit any tab online and save it as your Personal.

You can edit, replace or remove any tab part or add personal notes – all changes will be seen only by you.

Personal tabs can be accessed anytime from any device, even offline.
Learn more »
Give kudos to tab author, rate the tab!
1 2 3 4 5
comments
print report bad tab
guest
You may want to rate the tab now too:
select rating
Wanna post a correction for this tab? Suggest correction