Oops, an error
Loading. Please wait.

Busted And Blue chords

version 2
version 2

Whole song

  • Chords and melody arranged for one guitar. Includes Outro solo.
1,555 views 15 this week
no commentswrite comment
1 2 3 4 5
1 last vote to show rating
add to favorites
×
Save as Personal and add changes to this tab that will be seen only by you. Learn more ›
×
You can save this tab as Personal to edit and correct it or add notes. All changes will be seen only by you. Learn more »
launch autoscroll
font size
0
reset
transpose
0
reset
simplify chords
display chords
guitar tuner
edit
Autoscroll
slow
fast
+/-
esc
set tempo
stop
About this tab version
Chords and melody arranged for one guitar. Includes Outro solo. Was this info helpful? Yes No
Strumming Is this strumming pattern correct? Yes No
Whole Song 60 bpm
1
&
2
&
3
&
4
&
Listen
Gorillaz
"Busted and Blue"


Capo 3rd fret

   GM7 G6  F#m F#m7 Emadd9 Em  F#  F#7 Bm
e|-2---0---2---0----2------0---2---0-------|
B|-3---3---2---2----0------0---2---2--(3)--|
G|-4---4---2---2----0------0---3---3--(4)--|
D|-5---5---4---4----2------2---4---4---0---|
A|-------------------------------------2---|
E|(3)-(3)-(2)-(2)--(0)----(0)-(2)-(2)------|



[Intro]
GM7    G6  F#m    F#m7
Emadd9 Em  F#m  F# F#7
GM7    G6  F#m    F#m7
Emadd9 Em  F#m  F# F#7

[Verse]
GM7  G6        F#m      F#m7
Where does it come from 
                Emadd9         Em           F#m   F# F#7
When everything waltzed outside, busted and blue
GM7 G6       F#m     F#m7
How   in the universe
            Emadd9 Em           F#m   F# F#7
Through the lithium, busted and blue

GM7    G6  F#m    F#m7
Emadd9 Em  F#m  F# F#7

[Verse]
                    GM7    G6         F#m      F#m7
I was asked by a computer, a shadow on the wall
                 Emadd9      Em          F#m   F# F#7
An image made by Virgil, to rule over us all
                GM7   G6                 F#m   F#m7
So amplify the sirens, and to find real amends
                    Emadd9        Em          F#m  F# F#7
And through the echo-chambers, to other worlds away

[Chorus]
GM7       G6 F#m        F#m7
All my life, all my life
Emadd9        Em          F#m             F#                 F#7
Be my light, on me I am a satellite and I can't get back without you
GM7      G6 F#m       F#m7
Be my love, be my love
Emadd9   Em F#m    F#  F#7
Be my love, be my love

GM7    G6  F#m    F#m7
Emadd9 Em  F#m  F# F#7

[Verse]
GM7  G6        F#m      F#m7
Where do they come from?
                  Emadd9            Em       F#m          F#  F#7
The wires that connect to us, weightless and fall on your body
GM7 G6        F#m           F#m7
'Till we're invisible I'm with you
        Emadd9 Em         F#m  F#  F#7
Through altitude, busted and   blue

[Chorus]
GM7       G6 F#m        F#m7
All my life, all my life
Emadd9        Em          F#m             F#                 F#7
Be my light, on me I am a satellite and I can't get back without you
GM7      G6 F#m       F#m7
Be my love, be my love
Emadd9   Em F#m    F#  F#7
Be my love, be my love
         GM7    G6  F#m F#m7
Busted and blue

Emadd9 Em  F#m  F# F#7
GM7    G6  F#m    F#m7
Emadd9 Em  F#m  F# F#7
Bm

[Synth solo]
   GM7        G6   F#m        F#m7 Eadd9        Em F#m   F#    F#7
e|/14-----\10-\7--/12-----\9--\5--/7------/14-\10-/12-----\9--/10--|
B|-----------------------------------------------------------------|
G|-----------------------------------------------------------------|
D|-----------------------------------------------------------------|
A|-----------------------------------------------------------------|
E|-----------------------------------------------------------------|

   GM7        G6   F#m        F#m7 Eadd9        Em F#m   F#    F#7 Bm
e|/14-----\10-\7--/12-----\9--\5--/7------/14-\10-/12-----\9--/10-\7-------|
B|-------------------------------------------------------------------------|
G|-------------------------------------------------------------------------|
D|-------------------------------------------------------------------------|
A|-------------------------------------------------------------------------|
E|-------------------------------------------------------------------------|


************************************

| ()  Optional note
| /   Slide up
| \   Slide down

************************************

            
            
Suggest correction
Creating personal tab
Creating personal tab
You can edit any tab online and save it as your Personal.

You can edit, replace or remove any tab part or add personal notes – all changes will be seen only by you.

Personal tabs can be accessed anytime from any device, even offline.
Learn more »
Give kudos to tab author, rate the tab!
1 2 3 4 5
comments
print report bad tab
guest
You may want to rate the tab now too:
select rating
Wanna post a correction for this tab? Suggest correction