Oops, an error
Loading. Please wait.
We have an official Feel Good Inc tab made by UG professional guitarists. Check out the tab »
×

Feel Good Inc chords

version 7
version 7

Whole song

Video

1,945 views 96 this week
no commentswrite comment
1 2 3 4 5
x 4
add to favorites
×
Save as Personal and add changes to this tab that will be seen only by you. Learn more ›
×
You can save this tab as Personal to edit and correct it or add notes. All changes will be seen only by you. Learn more »
launch autoscroll
font size
0
reset
transpose
0
reset
simplify chords
display chords
guitar tuner
backing track
0:00
0:00
edit
Autoscroll
slow
fast
+/-
esc
set tempo
stop
About this tab version
This version uses a capo on the 4th fret in order to play the hook similarly to the original. Was this info helpful? Yes No
Strumming Are these strumming patterns correct? Yes No
Verse 120 bpm
1
&
2
&
3
&
4
&
5
&
6
&
7
&
8
&
Listen
Hook 120 bpm
1
&
2
&
3
&
4
&
Listen
Capo 4

Bassline tab (combine with chords):
    Bm        G F#m Em        Bm
e|---------------------------------------------------------------|
B|---------------------------------------------------------------|
G|-----------------------0---(0)---------------------------------|
D|------------5--4--2--2---2--5--2-------------------------------|
A|--2--2-4-5-----------------------------------------------------|
E|---------------------------------------------------------------|

OR:

Advanced verse tab:
    Bm             G  F#m           Em      G F#m Bm  B5
    v   .    .   . v ^ v  ^ v ^ v ^ v   . v ^ v . v . v  ^ v ^ v ^
e|--2---x---(x)--x-3-x-2--x-x-x-x-x-0---x-0-3-2-x-2-x----x-x-x-x-x--|
B|--3---x---(x)--x-3-x-2--x-x-x-x-x-0---x-0-3-2-x-3-x----x-x-x-x-x--|
G|--4---x---(x)--x-4-x-2--x-x-x-x-x-0---x-0-4-2-x-4-x-4--x-x-x-x-x--|
D|--4---x---(x)--x-5-x-4--x-x-x-x-x-2---x-2-5-4-x-4-x-4--x-x-x-x-x--|
A|--2---x--2-4-5-x-5-x-4--x-x-x-x-x-2---x-2-5-4-x-----2--x-x-x-x-x--|
E|-----------------3-x-2--x-x-x-x-x-0---x-0-3-2-x-------------------|

"x" means muted note
"." means tap/slap the strings with your nails
"^" means upstroke
"v" means downstroke

Hook tab:
    Bm        F#m          Em        F#m          Bm
e|--2--0-2--0--2--0--2--0--2--0-2--0--2--0--2--0-----------------------|
B|--3--3-3--3--2-(0)-2-(0)-0--0-0--0--2-(0)-2-(0)-3--------------------|
G|--4--4-4--4--2--x--2--x--0--0-0--0--2--x--2--x--4--------------------|
D|--4--4-4--4--4--4--4--4--2--2-2--2--4--4--4--4--4--------------------|
A|--2--2-2--2--4--4--4--4--2--2-2--2--4--4--4--4--2--------------------|
E|-------------2--2--2--2--0--0-0--0--2--2--2--2-----------------------|



[Verse 1]
Bm                        G       F#m
City's breaking down on a camel's back.
Em                               Bm
They just have to go 'cause they don't know wack
   Bm                              G          F#m
So all you fill the streets it's appealing to see
    Em                                      Bm
You won't get out the county, 'cause you're bad and free
       Bm                      G        F#m
You've got a new horizon it's ephemeral style.
  Em                       Bm
A melancholy town where we never smile.
    Bm                      G       F#m
And all I wanna hear is the message beep.
   Em                                     Bm
My dreams, they've gotta kiss me 'cause I don't get sleep, no

[Hook]
Bm                 F#m
Windmill, windmill for the land.
Em           F#m
Turn forever hand in hand
Bm             F#m
Take it all in on your stride
Em             F#m
It is sinking, falling down
Bm            F#m
Love forever, love is free
      Em            F#m
Let's turn forever, you and me
Bm                 F#m
Windmill, windmill for the land
   Em        F#m
Is everybody in?

[Verse 2]
                   Bm                  G           F#m
Laughing gas these hazmats, fast cats, lining them up-a like ass cracks
Em                             Bm
Lay these ponies at the track, it's my chocolate attack
Bm                                            G        F#m
Shit, I'm stepping in the heart of this here, Carebear reppin' it harder this year
Em                        Bm
Watch me as I gravitate, hahahahahahaa
                 Bm                           G  F#m
Yo, we gonna go ghost town, this motown, with yo sound, you're in the blink
          Em                                       Bm
You gonna bite the dust, can't fight with us, with yo sound you kill the inc.
   Bm                         G          F#m
So don't stop, get it, get it, until you jet ahead
     Em                         Bm
Yo, watch the way I navigate, hahahahahhaa

[Instrumental]
Bm F#m Em Bm x2

[Hook]
Bm F#m Em F#m x3

Bm                 F#m
Windmill, windmill for the land.
Em           F#m
Turn forever hand in hand
Bm             F#m
Take it all in on your stride
Em             F#m
It is sinking, falling down
Bm            F#m
Love forever, love is free
      Em            F#m
Let's turn forever, you and me
Bm                 F#m
Windmill, windmill for the land
   Em        F#m
Is everybody in?

[Outro]
Bm                          G            F#m             Em                        Bm
Don't stop, shit it,get it, we are your captains in it, steady, watch me navigate, ahahahahahhaa
Bm                          G            F#m             Em                        Bm
Don't stop, shit it,get it, we are your captains in it, steady, watch me navigate, ahahahahahhaa


            
            
Suggest correction
Creating personal tab
Creating personal tab
You can edit any tab online and save it as your Personal.

You can edit, replace or remove any tab part or add personal notes – all changes will be seen only by you.

Personal tabs can be accessed anytime from any device, even offline.
Learn more »
comments
print report bad tab
guest
You may want to rate the tab now too:
select rating
Wanna post a correction for this tab? Suggest correction