Oops, an error
Loading. Please wait.

November Has Come bass

version 3
version 3

Whole song

Interactive

801 views 3 this week
no commentswrite comment
1 2 3 4 5
2 more votes to show rating
add to favorites
×
Save as Personal and add changes to this tab that will be seen only by you. Learn more ›
×
You can save this tab as Personal to edit and correct it or add notes. All changes will be seen only by you. Learn more »
launch autoscroll
font size
0
reset
guitar tuner
edit
Autoscroll
slow
fast
+/-
esc
set tempo
stop
Author
Difficulty
-------------------------------------------------------------------------------
                                                 November Has Come - Gorillaz
-------------------------------------------------------------------------------

Tuning: EADG (standard)

The other tabs don't have it right, so here's how I play it. It might not be 
exactly right but I think it's closer than the other tabs.

The intro goes:

G|---------------------------------------------------------------------------|
D|---------------------------------------------------------------------------|
A|---3-----3--------------3--------------------------------------------------|
E|---------------2-2----4-----2-2--------------------------------------------|

The first verse is pretty similar, just repeat this until the verse ends.

G|---------------------------------------------------------------------------|
D|---------------------------------------------------------------------------|
A|---3-------3-------3-------3-----------------------------------------------|
E|------2-2----32-2-----2-2-----32-2-----------------------------------------|

The bass comes in during the second part of the chorus. This is the main bassline.

G|---------------------------------------------------------------------------|
D|---------------------------------------------------------------------------|
A|---3-3----7-------3-3------------------------------------------------------|
E|--------5---3-5--------5-5-3-3---------------------------------------------|

And those are all the parts! Listen to the song to get the timing, note duration, etc.

Have fun!

            
            
Suggest correction
Creating personal tab
Creating personal tab
You can edit any tab online and save it as your Personal.

You can edit, replace or remove any tab part or add personal notes – all changes will be seen only by you.

Personal tabs can be accessed anytime from any device, even offline.
Learn more »
Give kudos to tab author, rate the tab!
1 2 3 4 5
comments
print report bad tab
guest
You may want to rate the tab now too:
select rating
Wanna post a correction for this tab? Suggest correction