Oops, an error
Loading. Please wait.

On Melancholy Hill bass

version 2
version 2

Whole song

Interactive

44,292 views 24 this week
8 commentsread comments
1 2 3 4 5
x 37
add to favorites
×
Save as Personal and add changes to this tab that will be seen only by you. Learn more ›
×
You can save this tab as Personal to edit and correct it or add notes. All changes will be seen only by you. Learn more »
launch autoscroll
font size
0
reset
guitar tuner
edit
Autoscroll
slow
fast
+/-
esc
set tempo
stop
Author
Difficulty
This song only uses the lower two strings.
98% sure its right. Tabbed by Ultimatebass123

[Intro]
G |--------------------------------------------------------|
D |--------------------------------------------------------|
A |5-5-55-555----------------------------------------------|
E |-----------5-5-55-555-7-7-77-777-3-3-55-555-3-3-55-555--|(x2)

[Verse 1]
(Up on Melancholy Hill)
G |--------------------------------------------------------|
D |--------------------------------------------------------|
A |5-5-55-555----------------------------------------------|
E |-----------555-55-555-777-77-777-333-55-555-333-55-555--|

[Verse 2]
(Well you can't get what you want)
G |--------------------------------------------------------|
D |--------------------------------------------------------|
A |55--55-555----------------------------------------------|
E |-----------555-55-555-777-77-777-333-55-555-333-55-555--|

[Break]
G |--------------------------------------------------------|
D |--------------------------------------------------------|
A |5-5-55-555----------------------------------------------|
E |-----------555-55-555-777-77-777-333-55-555-333-55-555--|

[Verse 3]
(So call in the submarine)
G |--------------------------------------------------------|
D |--------------------------------------------------------|
A |5-5-55-555----------------------------------------------|
E |-----------555-55-555-777-77-777-333-55-555-333-55-555--|

[Break 2]
G |--------------------------------------------------------|
D |--------------------------------------------------------|
A |5-5-55-555----------------------------------------------|
E |-----------555-55-555-777-77-777-333-55-555-333-55-555--|

[Verse 4]
(Up on Melancholy Hill)
G |--------------------------------------------------------|
D |--------------------------------------------------------|
A |5-5-55-555----------------------------------------------|
E |-----------555-55-555-777-77-777-333-55-555-333-55-555--|

[Outro]
(When you're close to me)
G |--------------------------------------------------------|
D |--------------------------------------------------------|
A |5-5-55-555----------------------------------------------|
E |-----------555-55-555-777-77-777-333-55-555-333-55-555--|

Incredibly easy tab but an awesome song, enjoy!

            
            
Suggest correction
Creating personal tab
Creating personal tab
You can edit any tab online and save it as your Personal.

You can edit, replace or remove any tab part or add personal notes – all changes will be seen only by you.

Personal tabs can be accessed anytime from any device, even offline.
Learn more »
comments
print report bad tab
8 comments total. Showing first comments.
0 reply
soulman1969 52 May 24, 2013 02:42 PM

I think there is a slight variation in the live performances on some verses that adds a little bit of spice. goes something like following ..

Verse Variation (Up on Melancholy Hill)
G |--------------------------------------------------------|
D |---------------------------------555----765-555----777--|
A |5-5-55-555---------------------------75---------75------|
E |-----------555-55-555-777-77-777------------------------|

0 reply
Shevan 10 Sep 16, 2014 05:14 PM, edited on November 4 2014, 09:10 pm

This is great!

0 reply
jtswepston 10 Nov 24, 2015 02:12 PM

why use a bunch of 5's ad 7's when you could bump it up to the A and D strings and use 0's and 2's? It seems like it would get tiring to hold the same fret the whole song.

guest
You may want to rate the tab now too:
select rating
Wanna post a correction for this tab? Suggest correction