Oops, an error
Loading. Please wait.

Superfast Jellyfish bass

version 1
version 1

Whole song

Interactive

13,706 views 30 this week
2 commentsread comments
1 2 3 4 5
x 16
add to favorites
×
Save as Personal and add changes to this tab that will be seen only by you. Learn more ›
×
You can save this tab as Personal to edit and correct it or add notes. All changes will be seen only by you. Learn more »
launch autoscroll
font size
0
reset
guitar tuner
edit
Autoscroll
slow
fast
+/-
esc
set tempo
stop
Difficulty
Tabbed By:Kevin
Tuning:Standard

This is my first tab, so forgive if its not the greatest (pretty sure its accurate).  On 
other hand though it is an really easy song and fun to play with.

Main Riff

0:16 - 1:03

G|----------------------------------------------------|
D|----------------------------------------------------|
A|-----1-3-----0-6-5---5---------1-3-----0-6-5--------|
E|---3-------------------------3----------------------|x4

(Pause)

1:07 - 1:27

G|---------------------------------------------------|
D|---------------------------------------------------|
A|-----1-3-----0-6-5---5--------1-3-----0-6-5---5----|
E|---3------------------------3----------------------|

G|--------------------------------------------|
D|--------------------------------------------|
A|-----1-3-----0-6-5-------------0-6-5---5----|
E|---3----------------------------------------|

1:27 - 1:50

G|----------------------------------------------------|
D|----------------------------------------------------|
A|-----1-3-----0-6-5---5---------1-3-----0-6-5--------|
E|---3-------------------------3----------------------|x2

1:51 - 2:11

G|---------------------------------------------------|
D|---------------------------------------------------|
A|-----1-3-----0-6-5---5--------1-3-----0-6-5---5----|
E|---3------------------------3----------------------|

G|--------------------------------------------|
D|--------------------------------------------|
A|-----1-3-----0-6-5-------------0-6-5---5----|
E|---3----------------------------------------|


2:12 - End

G|----------------------------------------------------|
D|----------------------------------------------------|
A|-----1-3-----0-6-5---5---------1-3-----0-6-5--------|
E|---3-------------------------3----------------------|x3

            
            
Suggest correction
Creating personal tab
Creating personal tab
You can edit any tab online and save it as your Personal.

You can edit, replace or remove any tab part or add personal notes – all changes will be seen only by you.

Personal tabs can be accessed anytime from any device, even offline.
Learn more »
comments
print report bad tab
2 comments total. show 1 bad comment
0 reply
Hyprnator 10 Dec 04, 2013 09:59 PM

Nice ;)

guest
Wanna post a correction for this tab? Suggest correction