Oops, an error
Loading. Please wait.

Heavy Cross tab

version 3
version 3
by gossip
41,297 views 51 this week
no commentswrite comment
1 2 3 4 5
x 7
add to favorites
×
Save as Personal and add changes to this tab that will be seen only by you. Learn more ›
×
You can save this tab as Personal to edit and correct it or add notes. All changes will be seen only by you. Learn more »
launch autoscroll
font size
0
reset
how to read this tab
guitar tuner
backing track
0:00
0:00
edit
Autoscroll
slow
fast
+/-
esc
set tempo
stop
Author
Make shure you angle your pick and kinda scratch the strings while palm muting to get 
right sound in intro/verses.

-------------------------------------------------------------------------------
                          Heavy Cross - The Gossip
-------------------------------------------------------------------------------
Tabbed by: eDWICHt
Email: edwicht@web.de

Tuning: Drop-D

Make shure you angle your pick and kinda scratch the strings while palm muting to get 
right sound in intro/verses.

Intro / verse 2:
e|------------------------------------------------|------------------------------------------------|
B|------------------------------------------------|------------------------------------------------|
G|------------------------------------------------|------------------------------------------------|
D|------14-14-------14-14-------14-14-------14-14-|-------14-14-------14-14-------17-17-------17-17|
A|------------------------------------------------|------------------------------------------------|
D|12-14-------14-14-------12-14-------14-14-------|-12-14-------14-14-------14-14-------14-14------|


e|------------------------------------------------|------------------------------------------------|
B|------------------------------------------------|------------------------------------------------|
G|------------------------------------------------|------------------------------------------------|
D|------12-12-------12-12-------12-12-------12-12-|-------12-12-------12-12-------10-10-----9-9----|
A|------------------------------------------------|------------------------------------------------|
D|10-12-------12-12-------10-12-------12-12-------|-10-12-------12-12-------10-10-------9-9--------|

play 4x

verse 1
e|--------------------------------|--------------------------------|
B|--------------------------------|--------------------------------|
G|--------------------------------|--------------------------------|
D|----2-2-----2-2-----2-2-----2-2-|-----2-2-----2-2----2-2-----2-2-|
A|--------------------------------|--------------------------------|
D|2-2-----2-2-----2-2-----2-2-----|-2-2-----2-2----2-2-----2-2-----|

e|--------------------------------|--------------------------------|
B|--------------------------------|--------------------------------|
G|--------------------------------|--------------------------------|
D|----0-0-----0-0-----0-0-----0-0-|-----0-0-----0-0----0-0-----0-0-|
A|--------------------------------|--------------------------------|
D|0-0-----0-0-----0-0-----0-0-----|-0-0-----0-0----0-0-----0-0-----|

Play 4x

Chorus
e|-----------------------------------------|
B|-12-12-12-12-x-x-x-x-12-12-12-12-x-x-x-x-|
G|-12-12-12-12-x-x-x-x-12-12-12-12-x-x-x-x-|
D|-----------------------------------------|
A|-----------------------------------------|
D|-----------------------------------------|

e|-----------------------------------------|
B|-17-17-17-17-x-x-x-x-17-17-x-x-17-17-x-x-|
G|-16-16-16-16-x-x-x-x-16-16-x-x-16-16-x-x-|
D|-14-14-14-14-x-x-x-x-14-14-x-x-14-14-x-x-|
A|-----------------------------------------|
D|-----------------------------------------|

e|-----------10-------------------|
B|-----------10-------------------|
G|-----------10-------------------|
D|--------------------------------|
A|--------------------------------|
D|-12---12-------12---x-7-7-7-7-7-|

e|-----------10-------------------|
B|-----------10-------------------|
G|-----------10-------------------|
D|--------------------------------|
A|--------------------------------|
D|-12---12-------12---x-7-7-7-7-7-|

play 4x

| /  slide up
| \  slide down
| h  hammer-on
| p  pull-off
| ~  vibrato
| +  harmonic
| x  Mute note
===============================================================================

            
            
Suggest correction
Creating personal tab
Creating personal tab
You can edit any tab online and save it as your Personal.

You can edit, replace or remove any tab part or add personal notes – all changes will be seen only by you.

Personal tabs can be accessed anytime from any device, even offline.
Learn more »
comments
print report bad tab
guest
You may want to rate the tab now too:
select rating
Wanna post a correction for this tab? Suggest correction