Oops, an error
Loading. Please wait.

Listen Up bass

version 2
version 2

Whole song

Interactive

by gossip
2,734 views 1 this week
no commentswrite comment
1 2 3 4 5
1 last vote to show rating
add to favorites
×
Save as Personal and add changes to this tab that will be seen only by you. Learn more ›
×
You can save this tab as Personal to edit and correct it or add notes. All changes will be seen only by you. Learn more »
launch autoscroll
font size
0
reset
guitar tuner
edit
Autoscroll
slow
fast
+/-
esc
set tempo
stop
Author
The Gossip - Listen up! (Bass Tab)

Verse
x3
G -------------------7-|
D ---------------5-----|
A 7-7-77-7-77-7-7--5---|
E ---------------------|
x1
G ------------|
D ------------|
A 7-7-77-7-77-|
E ------------|

Chorus (1,2,3...take it from me...)
x3
G --------------------------77--99-|
D ---------------------------------|
A 77777777777777777777777755--77---|
E ---------------------------------|
x1
G -------------------------0h70h7--99-|
D ------------------------------------|
A 7777777777777777777777775-------77--|
E ------------------------------------|
END.

h= Hammer on.(eg. 0h7= open string hammer on 7th fret)

This is my first tab so i'd love it if u left me some feedback! :)

            
            
Suggest correction
Creating personal tab
Creating personal tab
You can edit any tab online and save it as your Personal.

You can edit, replace or remove any tab part or add personal notes – all changes will be seen only by you.

Personal tabs can be accessed anytime from any device, even offline.
Learn more »
Give kudos to tab author, rate the tab!
1 2 3 4 5
comments
print report bad tab
guest
You may want to rate the tab now too:
select rating
Wanna post a correction for this tab? Suggest correction