Oops, an error
Loading. Please wait.

Standing In The Way Of Control bass

version 1
version 1

Whole song

Interactive

by gossip
21,838 views 6 this week
5 commentsread comments
1 2 3 4 5
x 21
add to favorites
×
Save as Personal and add changes to this tab that will be seen only by you. Learn more ›
×
You can save this tab as Personal to edit and correct it or add notes. All changes will be seen only by you. Learn more »
launch autoscroll
font size
0
reset
guitar tuner
edit
Autoscroll
slow
fast
+/-
esc
set tempo
stop
Author
Difficulty
Song Title: Standing In The Way Of Control
Artist: The Gossip
Tabbed By: Michael Macdonald

Hope you enjoy..

INTRO
G|-------------------------------------|
D|-------------------------------------|
A|-------------------------------------|
E|5555555-55555555-55555555-0000-11-33-| x1

And then it goes straight into the verse, which is:

VERSE
G|-----------------------------------------|
D|--7-7-7-7-7-7-7-7--5-5-5-5-5-5--2-3-3----|
A|-------------------------------------3-3-|
E|-5-5-5-5-5-5-5-5--3-3-3-3-3-3------------|  x7

After that, it's the chorus, which is the same as the intro:

CHORUS
G|-------------------------------------|
D|-------------------------------------|
A|-------------------------------------|
E|5555555-55555555-55555555-0000-11-33-| x1

Back into the Verse:

VERSE
G|-----------------------------------------|
D|--7-7-7-7-7-7-7-7--5-5-5-5-5-5--2-3-3----|
A|-------------------------------------3-3-|
E|-5-5-5-5-5-5-5-5--3-3-3-3-3-3------------|  x7

Chorus again:

CHORUS
G|-------------------------------------|
D|-------------------------------------|
A|-------------------------------------|
E|5555555-55555555-55555555-0000-11-33-| x1


Then it's a Quiet Verse, which is similar to the Normal Verse:

QUIET VERSE
G|--------------------------------------|
D|--------------------------------------|
A|----------------------------3333-5555-|
E|-55555555-55555555-33333333-----------| x8

And then it goes back into the Chorus:

CHORUS
G|-------------------------------------|
D|-------------------------------------|
A|-------------------------------------|
E|5555555-55555555-55555555-0000-11-33-| x1

Verse Again:

VERSE
G|-----------------------------------------|
D|--7-7-7-7-7-7-7-7--5-5-5-5-5-5--2-3-3----|
A|-------------------------------------3-3-|
E|-5-5-5-5-5-5-5-5--3-3-3-3-3-3------------|  x3

VERSE2
G|------------------------------------|
D|---------------------------2-3-3----|
A|--------------------------------3-3-|
E|5-5-5-5-5-5-5-5--3-3-3-3-3----------| x3

And a Final Chorus:

CHORUS
G|-------------------------------------|
D|-------------------------------------|
A|-------------------------------------|
E|5555555-55555555-55555555-0000-11-33-| x1

Hold the last note of the last Chorus.

If you've found any mistakes (there are probably millions) email me at:

mikeyfatboy@hotmail.co.uk

Ciao!

            
            
Suggest correction
Creating personal tab
Creating personal tab
You can edit any tab online and save it as your Personal.

You can edit, replace or remove any tab part or add personal notes – all changes will be seen only by you.

Personal tabs can be accessed anytime from any device, even offline.
Learn more »
comments
print report bad tab
5 comments total. Showing first comments.
0 reply
bassist792 81 Mar 01, 2007 09:10 AM

Sounding good to me, thanks

0 reply
decky123 31 Jun 18, 2007 11:50 AM

great tad =] your slow chours is a bit of though but 4 stars :D

0 reply
pacmandemon 51 Feb 12, 2008 03:43 AM

-OneHandedBassist-
Kinda tough to do 5 and 7 on different strings in so little time..
Oh well, Im lerning.
& I know how to play thing song properly
Ty

guest
You may want to rate the tab now too:
select rating
Wanna post a correction for this tab? Suggest correction