Oops, an error
Loading. Please wait.

Soul Shine solo tab

26,717 views 12 this week
no commentswrite comment
1 2 3 4 5
x 3
add to favorites
×
Save as Personal and add changes to this tab that will be seen only by you. Learn more ›
×
You can save this tab as Personal to edit and correct it or add notes. All changes will be seen only by you. Learn more »
launch autoscroll
font size
0
reset
how to read this tab
guitar tuner
edit
Autoscroll
slow
fast
+/-
esc
set tempo
stop
Author
Difficulty
e|---------------18\--------6---8b------6----8b---8-----(8)b----------------|
B|-----------------------6-----------8--------------------------------------|
G|----------15--------------------------------------------------------------|
D|---15--17-----------------------------------------------------------------|
A|--------------------------------------------------------------------------|
E|--------------------------------------------------------------------------|

e|--11b-X12---9~\---6---6\--6-------------------------------6--8b-----------|
B|-----------------------------8---6------6--------6---8-----------8---6----|
G|-------------------------------------/7------/7---------------------------|
D|-------------------------------------------8------------------------------|
A|--------------------------------------------------------------------------|
E|--------------------------------------------------------------------------|

e|-------------------------8b---11b---11--9b\---8b--6\8/6---------8b--6-----|
B|---8b---8h6------6---8----------------------------------\8---8------------|
G|--------------7-----------------------------------------------------------|
D|--------------------------------------------------------------------------|
A|--------------------------------------------------------------------------|
E|--------------------------------------------------------------------------|

e|--------------------------------------------------------------------------|
B|---6/8\6-------6--6\13b--13b-11-------11-----13----11--13-----11--11-11~--|
G|-----------8---------------------12~------12----12---------12-------------|
D|--------------------------------------------------------------------------|
A|--------------------------------------------------------------------------|
E|--------------------------------------------------------------------------|

e|---------------------------------------------------------------13b--------|
B|--11\------11---11--11--11\4-------11------14h11--11---13b--11------------|
G|-------/12--------------------/12------12---------------------------------|
D|--------------------------------------------------------------------------|
A|--------------------------------------------------------------------------|
E|--------------------------------------------------------------------------|

e|-13-------------------------13--------------------------------------------|
B|-----13br---11---13b---13b------13b---------------11--13b--13b--13b-------|
G|-------------------------------------10---10\/12--------------------------|
D|--------------------------------------------------------------------------|
A|--------------------------------------------------------------------------|
E|--------------------------------------------------------------------------|

e|--------------------------------------------------------------------------|
B|--10h13--10---10\-------10--11b---11b---11--10--11-------15--16--18-------|
G|-------------------/10-------------------------------17-------------------|
D|--------------------------------------------------------------------------|
A|--------------------------------------------------------------------------|
E|--------------------------------------------------------------------------|

e|--15--16--18----18b--18b~--20b--20b--20b---20b--20b----20b----------------|
B|--------------------------------------------------------------------------|
G|--------------------------------------------------------------------------|
D|--------------------------------------------------------------------------|
A|--------------------------------------------------------------------------|
E|--------------------------------------------------------------------------|

e|--18---20~--20~--20~-20~\-------------------------------------------------|
B|---------------------------13b--13--13b--11-11\---------------------------|
G|------------------------------------------------------Break-4-Bars--------|
D|--------------------------------------------------------------------------|
A|--------------------------------------------------------------------------|
E|--------------------------------------------------------------------------|

e|---------------------------------------------------------6--6h8--6--------|
B|------------------------------------------------6----8--------------------|
G|-------------6/5--5--7----------------------/7----------------------------|
D|---/5----8---------------8---5--------------------------------------------|
A|----------------------------------8---8\----------------------------------|
E|--------------------------------------------------------------------------|

e|-----------------------------------------------------9b---9b-----6--------|
B|--6---8b---8b--8b--6h8---6---6h8------------------------------------------|
G|--------------------------------------------------------------------------|
D|--------------------------------------------------------------------------|
A|--------------------------------------------------------------------------|
E|--------------------------------------------------------------------------|

e|--------------------------------------------------------------------------|
B|--6---13b---13bh11----13b~--13\-------11--11---11--13h11---13b--11---13---|
G|-------8-----7-------------------/12--------------------------------------|
D|--------------------------------------------------------------------------|
A|--------------------------------------------------------------------------|
E|--------------------------------------------------------------------------|

e|--------------------11b---11------------9---------9----------6------------|
B|--13\----11---14b-------------11---11-------8\6-------6--8B------9---6----|
G|--------------------------------------------------------------------------|
D|--------------------------------------------------------------------------|
A|--------------------------------------------------------------------------|
E|--------------------------------------------------------------------------|

e|-------6----------------6-----------------------------18---18---18--18\---|
B|-----------9----6------------9--------------------------------------------|
G|--8b---------------8b-------------10/8---6b-------------------------------|
D|----------------------------------------------8---8-----------------------|
A|--------------------------------------------------------------------------|
E|--------------------------------------------------------------------------|

e|-------6--8b----11b----11b---11---9b---11----11b-------6---8b---6---------|
B|--/8----------------------------------------------/8----------------------|
G|--------------------------------------------------------------------------|
D|--------------------------------------------------------------------------|
A|--------------------------------------------------------------------------|
E|--------------------------------------------------------------------------|

e|--9b--9b----6----6-----------------6--------------------13----------------|
B|---------------6----9b---9\-----6----6-----------13b---------13b----------|
G|-----------------------------------------8---7----------------------------|
D|--------------------------------------------------------------------------|
A|--------------------------------------------------------------------------|
E|--------------------------------------------------------------------------|

e|--13-------13-------13-------13--------13---------------------------------|
B|------13b------13b------13b------13b-------13b--13b-----------------------|
G|-----------------------------------------------------10---10\/12----------|
D|--------------------------------------------------------------------------|
A|--------------------------------------------------------------------------|
E|--------------------------------------------------------------------------|

e|--------------------------------------------------------------------------|
B|--11------13-----11--14h11--11--14h11--11--14h11--11-14h11--11--14h11-----|
G|------12------12----------------------------------------------------------|
D|--------------------------------------------------------------------------|
A|--------------------------------------------------------------------------|
E|--------------------------------------------------------------------------|

e|---------------------18b--18b--18b--18---18--18---18h15--18-15h18h15------|
B|--11--11--13b-------------------------------------------------------------|
G|----------------15--------------------------------------------------------|
D|--------------------------------------------------------------------------|
A|--------------------------------------------------------------------------|
E|--------------------------------------------------------------------------|

e|--------------------------------------------------------------------------|
B|--18h15----18---15h18h15--------------------------------------------------|
G|--------------------------17p15---17b---15--17---17\---17bh15-------------|
D|---------------------------------------------------------------17---------|
A|--------------------------------------------------------------------------|
E|--------------------------------------------------------------------------|

e|--------------------------------------------------------------------------|
B|--------------------------------------------------------------------------|
G|--15---17b---15h17---15h17--17--15--17--17--17--15--17bh15---17bh15-------|
D|--------------------------------------------------------------------------|
A|--------------------------------------------------------------------------|
E|--------------------------------------------------------------------------|

e|--------------------------------------------------------------------------|
B|---------------11--13b--13b----11---13---------18b--18--------------------|
G|--17bh15---10---------------------------12-----17-------17b--17h15--------|
D|--------------------------------------------------------------------17----|
A|--------------------------------------------------------------------------|
E|--------------------------------------------------------------------------|

e|---------------------------------------------6--6-------------------------|
B|------------------------------------------6--------9--8--6b---------------|
G|---15-----------------------------15-------------------------8-9-8--------|
D|--------17h15-------------------------------------------------------------|
A|----------------\15---13---15/17------------------------------------------|
E|--------------------------------------------------------------------------|

e|--------------------------------------------------------------------------|
B|--------------------------------------------------------------------------|
G|--6br6br6b----------------------------------------------------------------|
D|-------------8~~~~--------------------------------------------------------|
A|--------------------------------------------------------------------------|
E|--------------------------------------------------------------------------|

            
            
Suggest correction
Creating personal tab
Creating personal tab
You can edit any tab online and save it as your Personal.

You can edit, replace or remove any tab part or add personal notes – all changes will be seen only by you.

Personal tabs can be accessed anytime from any device, even offline.
Learn more »
Give kudos to tab author, rate the tab!
1 2 3 4 5
comments
print report bad tab
guest
You may want to rate the tab now too:
select rating
Wanna post a correction for this tab? Suggest correction