Oops, an error
Loading. Please wait.

Streamline Woman tab

version 1
version 1

Whole song

3,051 views 3 this week
no commentswrite comment
1 2 3 4 5
1 last vote to show rating
add to favorites
×
Save as Personal and add changes to this tab that will be seen only by you. Learn more ›
×
You can save this tab as Personal to edit and correct it or add notes. All changes will be seen only by you. Learn more »
launch autoscroll
font size
0
reset
how to read this tab
guitar tuner
edit
Autoscroll
slow
fast
+/-
esc
set tempo
stop
I watched Mr. Haynes very carefully to figure this one out with this 
You can see in the beginning he is tuning his gutar down. Thanks MyInnerEyeMike.

      intro                                                 main verse
eb:---------------------------|--------------------------------------------|
Bb:---------------------------|--------------------------------------------|
F#:--12-x-12-x-12---12-12-12--|-----2------2---------------2------2--------|x4
C#:--12-x-12-x-12---12-12-12--|-----2------2---------------2------2--------|
Ab:--10-x-10-x-10---10-10-10--|-3p0----3p0-----3p0h5p0h3p0----3p0----------|
Eb:---------------------------|--------------------------------------------|

 first chord break after verse x3  then  to  --->   second chord break (oooohhhh hhhhhoooo)
eb:-----2----3-----------|--------------------------------------------------|
Bb:-----3----3-----------|--------11----------------------------------------|
F#:-----2----2-----------|--------9-----------------------------------------|
C#:----------------------|--------x------5----------------------------------|
Ab:----------------------|--------7------5----------------------------------|
Eb:----------------------|--------9------3----------------------------------|

The solo varies every time they play it so i couldn't really tab it out (sorry) but you 
just improv using the penatonic scale seeing how it is really a blues song.

            
            
Suggest correction
Creating personal tab
Creating personal tab
You can edit any tab online and save it as your Personal.

You can edit, replace or remove any tab part or add personal notes – all changes will be seen only by you.

Personal tabs can be accessed anytime from any device, even offline.
Learn more »
Give kudos to tab author, rate the tab!
1 2 3 4 5
comments
print report bad tab
guest
You may want to rate the tab now too:
select rating
Wanna post a correction for this tab? Suggest correction