Oops, an error
Loading. Please wait.

Thorazine Shuffle bass

version 2
version 2

Whole song

Interactive

3,117 views 3 this week
no commentswrite comment
1 2 3 4 5
3 more votes to show rating
add to favorites
×
Save as Personal and add changes to this tab that will be seen only by you. Learn more ›
×
You can save this tab as Personal to edit and correct it or add notes. All changes will be seen only by you. Learn more »
launch autoscroll
font size
0
reset
guitar tuner
edit
Autoscroll
slow
fast
+/-
esc
set tempo
stop
                              Thorazine Shuffle                                 


                                                                      Gov't Mule
Bass



      Q    E   E  E  E  E  E     Q    Q    E  Q     E     E  E  E   E  E  E   4x
G||---------------------------|------------------------|----------------------||
D||*--------------------------|-------9----------------|---------------------*||
A||*-----------------7-----9--|---------------7--------|--7--8--7------------*||
E||---7-------10--------------|--------------------10--|-----------10--7--7---||


  E   E  E  E  E  E  Q       Q    E  E  E  Q     E     E  E  E   E  E  E   
--------------------------|----------9-----9--------|---------------------|
--------------------------|--9-------9-----9--------|---------------------|
------------7-----9-------|----------7-----7--------|--7--8--7---------0--|
--7--10-------------------|---------------------10--|-----------10--7-----|


  Q    E   E  E  E  E  E     Q    Q    E  Q     E     E  E  E   E  E  E   
--------------------------|------------------------|---------------------|
--------------------------|-------9----------------|---------------------|
-----------------7-----9--|---------------7--------|--7--8--7------------|
--7-------10--------------|--------------------10--|-----------10--7--7--|


  E   E  E  E  E  E  Q       Q    E  E  E  Q     E     E  E  E  E  E  E   
--------------------------|----------9-----9--------|--------------------|
--------------------------|--9-------9-----9--------|--------------------|
------------7-----9-------|----------7-----7--------|--7--8--7--5-----0--|
--7--10-------------------|---------------------10--|--------------7-----|


  Q    E   E  E  E  E  E     Q    Q    E  Q     E     E  E  E   E  E  E   
--------------------------|------------------------|---------------------|
--------------------------|-------9----------------|---------------------|
-----------------7-----9--|---------------7--------|--7--8--7------------|
--7-------10--------------|--------------------10--|-----------10--7--7--|


    E   E  E  E  E  E  Q       Q    E  E  E  Q     E   
|---------------------------|----------9-----9--------|
|*--------------------------|--9-------9-----9--------|
|*------------7-----9-------|----------7-----7--------|
|---7--10-------------------|---------------------10--|


  E  E  E   E  E   E  E   E     Q    E   E  E  E  E  E     W                 
-----------------------------|--------------------------|-------------------|
-----------------------------|--------------------------|-------------------|
--7--8--7------7------7------|-----------------7-----7--|--L----------------|
-----------10-----10-----10--|-------7--10--------------|-------------------|


  W                   W                   E   E  E   E  E  E  E   E   
-------------------|-------------------|-----------------------------|
-------------------|-------------------|-----------------------------|
--L----------------|--L----------------|--7----------------7---------|
-------------------|-------------------|-----10--7--10-----------10--|


   Q    E  H         E      Q    E  H         E      Q    E  H        E   
------------------------|------------------------|-----------------------|
------------------------|------------------------|-----------------------|
------------------------|------------------------|-----------------------|
---L----7-----------10--|---L----7-----------10--|---L----7--------------|


  E   E  E   E  E  E  E  E     W                   W                 
----------------------------|-------------------|-------------------|
----------------------------|-------------------|-------------------|
--7----------------7-----7--|--L----------------|--L----------------|
-----10--7--10--------------|-------------------|-------------------|


  W                   E  E   E  E  E  E  E  E     Q.     H        E   
-------------------|---------------------------|---------------------|
-------------------|---------------------------|------------------4--|
--L----------------|-----7---------4-----------|---------4-----------|
-------------------|--------10--7-----7--5--2--|--L------------------|


  Q.     H        E     W                   W                 
---------------------|-------------------|-------------------|
--L------------------|-------------------|-------------------|
---------4-----------|-------------------|-------------------|
------------------2--|--L----------------|-------------------|


  Q    E   E  E  E  E  E     Q    Q    E  Q     E     Q    E  E  E   E  E  E   
--------------------------|------------------------|--------------------------|
--------------------------|-------9----------------|--------------------------|
-----------------7-----9--|---------------7--------|-------7--8--7------------|
--7-------10--------------|--------------------10--|----------------10--7--7--|


  E   E  E  E  E  E  Q       Q    E  E  E  Q     E     Q    E  E  E   E  E  E   
--------------------------|----------9-----9--------|--------------------------|
--------------------------|--9-------9-----9--------|--------------------------|
------------7-----9-------|----------7-----7--------|-------7--8--7---------0--|
--7--10-------------------|---------------------10--|----------------10--7-----|


  Q    E   E  E  E  E  E     Q    Q    E  Q     E     Q    E  E  E   E  E  E   
--------------------------|------------------------|--------------------------|
--------------------------|-------9----------------|--------------------------|
-----------------7-----9--|---------------7--------|-------7--8--7------------|
--7-------10--------------|--------------------10--|----------------10--7--7--|


  Q    E   E  E  E  E  E     Q    Q    E  E  E  E   
--------------------------|---------------9-----9--|
--------------------------|-------9-------9-----9--|
-----------------7-----9--|---------------7-----7--|
--7----7--10--------------|------------------------|


  E   E  E  E  E   E  E  E     Q    E   E  E  E  E  E   
--L-------------------------|--------------------------|
--L-------------------------|--------------------------|
--L------7--8--7---------0--|-----------------7-----9--|
-----10-----------10--7-----|--7-------10--------------|


  Q    Q    E  Q     E     Q    E  E  E   E  E  E     E   E  E  E  E  E  Q     
------------------------|--------------------------|--------------------------|
-------9----------------|--------------------------|--------------------------|
---------------7--------|-------7--8--7------------|------------7-----9-------|
--------------------10--|----------------10--7--7--|--7--10-------------------|


  Q    E  E  E  Q     E     Q    E  E  E   E  E  E     Q    E   E  E  E  E  E   
----------9-----9--------|--------------------------|--------------------------|
--9-------9-----9--------|--------------------------|--------------------------|
----------7-----7--------|-------7--8--7---------0--|-----------------7-----9--|
---------------------10--|----------------10--7-----|--7-------10--------------|


  Q    Q    E  Q     E     Q    E  E  E   E  E  E     Q    E   E  E  E  E  E   
------------------------|--------------------------|--------------------------|
-------9----------------|--------------------------|--------------------------|
---------------7--------|-------7--8--7------------|-----------------7-----9--|
--------------------10--|----------------10--7--7--|--7----7--10--------------|


  Q    E  E  E  Q     E     E  E  E   E  E   E  E   E   
----------9-----9--------|-----------------------------|
--9-------9-----9--------|-----------------------------|
----------7-----7--------|--7--8--7------7------7------|
---------------------10--|-----------10-----10-----10--|


  Q    E   E  E  E  E  E     W                   W                   
--------------------------|-------------------|--------------------||
--------------------------|-------------------|-------------------*||
-----------------7-----7--|--L----------------|--L----------------*||
-------7--10--------------|-------------------|--------------------||


  W                   E   E  E   E  E  E  E   E      Q    E  H         E   
-------------------|-----------------------------|------------------------|
-------------------|-----------------------------|------------------------|
--L----------------|--7----------------7---------|------------------------|
-------------------|-----10--7--10-----------10--|---L----7-----------10--|


   Q    E  H         E      Q    E  H        E     E   E  E   E  E  E  E  E   
------------------------|-----------------------|----------------------------|
------------------------|-----------------------|----------------------------|
------------------------|-----------------------|--7----------------7-----7--|
---L----7-----------10--|---L----7--------------|-----10--7--10--------------|


  W                   W                   W                 
-------------------|-------------------|-------------------|
-------------------|-------------------|-------------------|
--L----------------|--L----------------|--L----------------|
-------------------|-------------------|-------------------|


  E  E  E  E  E  E  E  E     Q.     H        E     Q.     H        E   
--------------------------|---------------------|---------------------|
--------------------------|------------------4--|--L------------------|
-----7--5-----4-----------|---------4-----------|---------4-----------|
-----------7-----7--5--2--|--L------------------|------------------2--|


  W                   W                   Q    E   E  E  E  E  E   
-------------------|-------------------|--------------------------|
-------------------|-------------------|--------------------------|
-------------------|-------------------|-----------------7-----9--|
--L----------------|-------------------|--7-------10--------------|


  Q    Q    E  Q     E     Q    E  E  E   E  E  E     E   E  E  E  E  E   
------------------------|--------------------------|---------------------|
-------9----------------|--------------------------|---------------------|
---------------7--------|-------7--8--7------------|------------7-----9--|
--------------------10--|----------------10--7--7--|--7--10--------------|


  Q    E  E  E  Q     E     Q    E  E  E   E  E  E     Q    E   E  E  E  E  E   
----------9-----9--------|--------------------------|--------------------------|
--9-------9-----9--------|--------------------------|--------------------------|
----------7-----7--------|-------7--8--7---------0--|-----------------7-----9--|
---------------------10--|----------------10--7-----|--7-------10--------------|


  Q    Q    E  Q     E     Q    E  E  E   E  E  E     E   E  E  E  E  E   
------------------------|--------------------------|---------------------|
-------9----------------|--------------------------|---------------------|
---------------7--------|-------7--8--7------------|------------7-----9--|
--------------------10--|----------------10--7--7--|--7--10--------------|


  Q    E  E  E  Q     E     Q    E  E  E   E  E  E     H        Q     
----------9-----9--------|--------------------------|----------------|
--9-------9-----9--------|--------------------------|----------------|
----------7-----7--------|-------7--8--7---------0--|----------------|
---------------------10--|----------------10--7-----|----------------|


  W                   W                   H        Q       W                 
-------------------|-------------------|----------------|-------------------|
-------------------|-------------------|----------------|-------------------|
-------------------|-------------------|----------------|-------------------|
-------------------|-------------------|----------------|-------------------|


  W                   H        Q       W                   W                 
-------------------|----------------|-------------------|-------------------|
-------------------|----------------|-------------------|-------------------|
-------------------|----------------|-------------------|-------------------|
-------------------|----------------|-------------------|-------------------|


  H        Q       W                   W                   H        Q     
----------------|-------------------|-------------------|----------------|
----------------|-------------------|-------------------|----------------|
----------------|-------------------|-------------------|----------------|
----------------|-------------------|-------------------|----------------|


  W                   W                   H        Q       W                 
-------------------|-------------------|----------------|-------------------|
-------------------|-------------------|----------------|-------------------|
-------------------|-------------------|----------------|-------------------|
-------------------|-------------------|----------------|-------------------|


  W                   H        Q       W                   W                 
-------------------|----------------|-------------------|-------------------|
-------------------|----------------|-------------------|-------------------|
-------------------|----------------|-------------------|-------------------|
-------------------|----------------|-------------------|-------------------|


  H        Q       W                   W                   H        Q     
----------------|-------------------|-------------------|----------------|
----------------|-------------------|-------------------|----------------|
----------------|-------------------|-------------------|----------------|
----------------|-------------------|-------------------|----------------|


  W                   W                   W                   H        Q     
-------------------|-------------------|-------------------|----------------|
-------------------|-------------------|-------------------|----------------|
-------------------|-------------------|-------------------|----------------|
-------------------|-------------------|-------------------|----------------|


  W                   W                   W                   W                 
-------------------|-------------------|-------------------|-------------------|
-------------------|-------------------|-------------------|-------------------|
-------------------|-------------------|-------------------|-------------------|
-------------------|-------------------|-------------------|-------------------|


  W                   W                   W                   W                 
-------------------|-------------------|-------------------|-------------------|
-------------------|-------------------|-------------------|-------------------|
-------------------|-------------------|-------------------|-------------------|
-------------------|-------------------|-------------------|-------------------|


  W                   W                   W                   W                 
-------------------|-------------------|-------------------|-------------------|
-------------------|-------------------|-------------------|-------------------|
-------------------|-------------------|-------------------|-------------------|
-------------------|-------------------|-------------------|-------------------|


  W                   W                   W                   W                 
-------------------|-------------------|-------------------|-------------------|
-------------------|-------------------|-------------------|-------------------|
-------------------|-------------------|-------------------|-------------------|
-------------------|-------------------|-------------------|-------------------|


    W                   W                   H        Q       W                 
|--------------------|-------------------|----------------|-------------------|
|*-------------------|-------------------|----------------|-------------------|
|*-------------------|-------------------|----------------|-------------------|
|--------------------|-------------------|----------------|-------------------|


  W                   H        Q     8x  W                   W                 
-------------------|-----------------||-------------------|-------------------|
-------------------|----------------*||-------------------|-------------------|
-------------------|----------------*||-------------------|-------------------|
-------------------|-----------------||-------------------|-------------------|


  H        Q       W                   W                   H        Q      
----------------|-------------------|-------------------|----------------||
----------------|-------------------|-------------------|----------------||
----------------|-------------------|-------------------|----------------||
----------------|-------------------|-------------------|----------------||




Duration Legend
---------------
W - whole
H - half
Q - quarter
E - 8th
S - 16th
T - 32nd
X - 64th
. - note dotted
|-n-|  - n-tuplets


Tablature Legend
----------------
L - tied note
x - dead note
g - grace note
(n) - ghost note
> - accentuded note
NH - natural harmonic
AH - artificial harmonic
TH - tapped harmonic
SH - semi harmonic
PH - pitch harmonic
h - hammer on
p - pull off
b - bend
br - bendRelease
pb - preBend
pbr - preBendRelease
brb - bendReleaseBend
\n/ - tremolo bar dip
\n - tremolo bar dive
-/n - tremolo bar Release up
/n\ - tremolo bar inverted dip
/n - tremolo bar return
-\n - tremolo bar Release down
S - shift slide
s - legato slide
/ -  slide into from below or out of upwards
\ -  slide into from above or out of downwards
~ - vibrato
W - wide vibrato
tr - trill
TP - tremolo picking
T - tapping
S - slap
P - pop
< - fade in
^ - brush up
v - brush down

            
            
Suggest correction
Creating personal tab
Creating personal tab
You can edit any tab online and save it as your Personal.

You can edit, replace or remove any tab part or add personal notes – all changes will be seen only by you.

Personal tabs can be accessed anytime from any device, even offline.
Learn more »
Give kudos to tab author, rate the tab!
1 2 3 4 5
comments
print report bad tab
guest
Wanna post a correction for this tab? Suggest correction