Oops, an error
Loading. Please wait.

Earthquake bass

6,529 views 1 this week
2 commentsread comments
1 2 3 4 5
1 last vote to show rating
add to favorites
×
Save as Personal and add changes to this tab that will be seen only by you. Learn more ›
×
You can save this tab as Personal to edit and correct it or add notes. All changes will be seen only by you. Learn more »
launch autoscroll
font size
0
reset
guitar tuner
edit
Autoscroll
slow
fast
+/-
esc
set tempo
stop
Author
Difficulty
200 bpm
     E  E  E  E  E  E  Q       Q    E  E  H           Q    Q    E  E  Q     
G||--------3-----------3----|--L-------------------|-----------------------|
D||-------------------------|----------------------|-----------------------|
A||-----------x--1----------|----------------------|-------1----3--5--3----|
E||--1--3-------------------|-------3-----3--------|--L--------------------|


  Q    E  E  Q    Q       E  E  E  E  E  E  Q       Q    E  E  H         
-----------------------|--------3-----------3----|--L-------------------|
-------3--5--3----L----|-------------------------|----------------------|
--L--------------------|-----------x--1----------|----------------------|
-----------------------|--1--3-------------------|-------3-----3--------|


  Q    Q    E  E  Q       Q    E  E  Q    Q       E  E  E  E  E  E  Q     
-----------------------|-----------------------|--------3-----------3----|
-----------------------|-------3--5--3----L----|-------------------------|
-------1----3--5--3----|--L--------------------|-----------x--1----------|
--L--------------------|-----------------------|--1--3-------------------|


  Q    E  E  H           Q    Q    E  E  Q       Q    E  E  Q    Q     
--L-------------------|-----------------------|-----------------------|
----------------------|-----------------------|-------3--5--3----L----|
----------------------|-------1----3--5--3----|--L--------------------|
-------3-----3--------|--L--------------------|-----------------------|


  E  E  E  E  E  E  Q       Q    E  E  H           Q    Q    E  E  Q     
--------3-----------3----|--L-------------------|-----------------------|
-------------------------|----------------------|-----------------------|
-----------x--1----------|----------------------|-------1----3--5--3----|
--1--3-------------------|-------3-----3--------|--L--------------------|


  Q    Q    Q    Q       Q    Q    Q    E  E     E  E  E  E  Q    Q     
-------5--------------|-----------------------|------------------------|
-----------------3----|-------4---------5-----|-----5-----x-------7----|
--L-------------------|-----------------------|------------------------|
------------1---------|--2---------3-------x--|--3-----x-----5---------|


  Q    Q    Q    E  E     E  E  E  E  Q    Q       Q    Q    E  E  E  E   
-----------------7-----|-----5-----x-------7----|-------8----------------|
-------8---------------|------------------------|---------------3-----x--|
------------5-------x--|--3-----x-----5---------|--6---------------------|
--6--------------------|------------------------|------------1-----x-----|


  E  E  E  E  Q    Q       Q    Q    Q    E  E     E  E  E  E  Q    Q     
------------------------|-----------------7-----|-----5-----x-------7----|
-----5-----x-------7----|-------8---------------|------------------------|
------------------------|------------5-------x--|--3-----x-----5---------|
--3-----x-----5---------|--6--------------------|------------------------|


  Q    Q    E  E  E  E     E  E  E  E  Q    Q       Q    Q    Q    E  E   
-------8----------------|------------------------|-----------------7-----|
---------------3-----x--|-----5-----x-------7----|-------8---------------|
--6---------------------|------------------------|------------5-------x--|
------------1-----x-----|--3-----x-----5---------|--6--------------------|


  E  E  E  E  Q    Q       Q    Q    E  E  E  E     E  E  E  E  Q    Q     
-----5-----x-------7----|-------8----------------|------------------------|
------------------------|---------------3-----x--|-----5-----x-------7----|
--3-----x-----5---------|--6---------------------|------------------------|
------------------------|------------1-----x-----|--3-----x-----5---------|


  Q    Q    Q    E  E     E  E  E  E  E  E  E  E     E  E  E  E  E  Q    E   
-----------------7-----|-----5--------------------|-------------------------|
-------8---------------|-----------------3--------|--4-----4--------5-------|
------------5-------x--|--3-----x--3--------------|-------------------------|
--6--------------------|--------------1-----x--1--|-----2-----2--3-------x--|


  E  E  E  E  Q    Q       Q    Q    Q    E  E     E  E  E  E  E  E  E  E   
------------------------|-----------------7-----|-----5-----------7--------|
-----5-----x-------7----|-------8---------------|--------------------------|
------------------------|------------5-------x--|--3-----x--x--5-----x--x--|
--3-----x-----5---------|--6--------------------|--------------------------|


  E  E  E  E   E   E  E  E     E  E  E  E  E  E  E  E   
-----8------------12--------|--------------------------|
----------------------------|-----5-----------7--------|
--6-----x--x--10------x--x--|--------------------------|
----------------------------|--3-----x--x--5-----x--x--|


  E  E  E  E  E  E  E  E     E  E  E  E  E  E  E  E   
-----------------7--------|-----5-----------7--------|
-----8--------------------|--------------------------|
--------------5-----x--x--|--3-----x--x--5-----x--x--|
--6-----x--x--------------|--------------------------|


  E  E  E  E  E   E  E  E      E   E  E  E   E   E  E  E   
-----8-----------10--------|------12------------14--------|
---------------------------|------------------------------|
--6-----x--x--8------x--x--|--10------x--x--12------x--x--|
---------------------------|------------------------------|


   E   E  E  E  E  E  E  E     E  E  E  E  E  E  E  E   
------15-----------6--------|-----5-----------7--------|
----------------------------|--------------------------|
--13------x--x--4-----x--x--|--3-----x--x--5-----x--x--|
----------------------------|--------------------------|


  E  E  E  E  E  E  E  E     E  E  E  E  E  E  E  E   
-----8--------------------|--------------------------|
-----------------6--------|-----5-----------7--------|
--6-----x--x--------------|--------------------------|
--------------4-----x--x--|--3-----x--x--5-----x--x--|


  E  E  E  E  E  E  E  E     H.           E  E   
-----------------7--------|---------------------|
-----8--------------------|---------------------|
--------------5-----x--x--|---------------5-----|
--6-----x--x--------------|--0---------------0--|

Tempo Change to 100 bpm
                  S                              S                  
  E  E  S  S S  S S  S E  E  E     E  E   S   S  S   S  Q    E  E   
--------------------------------|----------------------12----------|
------------------5h-7-5--------|---------------12h-14-------------|
-------------5h-7---------5-----|--------12h-14--------------5-----|
--L--0--5h-7-----------------0--|--L--0-------------------------0--|


                  S                           S                         
  E  E  S  S S  S S  S E  E  E     E   S   S  S   S  S   S  Q    E  E   
--------------------------------|-------------------12h-14-12----------|
------------------5h-7-5--------|------------12h-14--------------------|
-------------5h-7---------5-----|-----12h-14---------------------5-----|
--L--0--5h-7-----------------0--|--L--------------------------------0--|


                  S                              S                  
  E  E  S  S S  S S  S E  E  E     E  E   S   S  S   S  Q    E  E   
--------------------------------|----------------------12----------|
------------------5h-7-5--------|---------------12h-14-------------|
-------------5h-7---------5-----|--------12h-14--------------5-----|
--L--0--5h-7-----------------0--|--L--0-------------------------0--|


                  S                                                            
  E  E  S  S S  S S  S E  E  E     E   S   S  S   S  S   S  E   S   S  E   E   
--------------------------------|-------------------12h-14-12-----------------|
------------------5h-7-5--------|------------12h-14-------------------12--14--|
-------------5h-7---------5-----|-----12h-14-------------------12h-14---------|
--L--0--5h-7-----------------0--|--L------------------------------------------|


   S S  E   Q    E   E   S  S  E      S S  E   Q    E    E   E   E   
--12---12-------------------------|---------------------------------|
-----------14-------12------------|---------------------------------|
------------------------14-12-10--|--12---12--10------------10--12--|
----------------------------------|--------------------/12----------|


    E   E   S  S  E   E   E   E  E     E  E  E  E  E   S   S  E   E   
------------------------------------|--------------------------------|
-------12---------------------------|------------------------12--14--|
--/14------14-12-10--12--10---------|-----------------12h-14---------|
-----------------------------12--0--|--L--0--0--0--0-----------------|


   |--3--|                                                               
   S  S  S  E   Q    E   E   S  S  E      S S  E   Q    E    E   E   E   
--12-14-12--L-------------------------|---------------------------------|
---------------14-------12------------|---------------------------------|
----------------------------14-12-10--|--12---12--10------------10--12--|
--------------------------------------|--------------------/12----------|


    E   E   S  S  E   E   E   E  E     E    E   Q      E    E   Q               
------------------------------------|-----/16--12----/16--/16--12\----|-------||
-------12---------------------------|---------------------------------|-------||
--/14------14-12-10--12--10---------|---------------------------------|-------||
-----------------------------12--0--|--L------------------------------|-------||


as of right now its only the intro but ill finish it up over the next few days

Duration Legend
---------------
W - whole
H - half
Q - quarter
E - 8th
S - 16th
T - 32nd
X - 64th
. - note dotted
|-n-|  - n-tuplets


Tablature Legend
----------------
L - tied note
x - dead note
g - grace note
(n) - ghost note
> - accentuded note
NH - natural harmonic
AH - artificial harmonic
TH - tapped harmonic
SH - semi harmonic
PH - pitch harmonic
h - hammer on
p - pull off
b - bend
br - bendRelease
pb - preBend
pbr - preBendRelease
brb - bendReleaseBend
\n/ - tremolo bar dip
\n - tremolo bar dive
-/n - tremolo bar Release up
/n\ - tremolo bar inverted dip
/n - tremolo bar return
-\n - tremolo bar Release down
S - shift slide
s - legato slide
/ -  slide into from below or out of upwards
\ -  slide into from above or out of downwards
~ - vibrato
W - wide vibrato
tr - trill
TP - tremolo picking
T - tapping
S - slap
P - pop
< - fade in
^ - brush up
v - brush down

            
            
Suggest correction
Creating personal tab
Creating personal tab
You can edit any tab online and save it as your Personal.

You can edit, replace or remove any tab part or add personal notes – all changes will be seen only by you.

Personal tabs can be accessed anytime from any device, even offline.
Learn more »
Give kudos to tab author, rate the tab!
1 2 3 4 5
comments
print report bad tab
2 comments total.
0 reply
Lukifer1113 10 Nov 28, 2007 02:44 PM

awesome

0 reply
bderivan 20 Jul 30, 2008 05:36 PM

i thought you were going to finish it in a few days....

guest
You may want to rate the tab now too:
select rating
Wanna post a correction for this tab? Suggest correction