Oops, an error
Loading. Please wait.

Pow bass

version 2
version 2

Whole song

Interactive

3,941 views 1 this week
no commentswrite comment
1 2 3 4 5
3 more votes to show rating
add to favorites
×
Save as Personal and add changes to this tab that will be seen only by you. Learn more ›
×
You can save this tab as Personal to edit and correct it or add notes. All changes will be seen only by you. Learn more »
launch autoscroll
font size
0
reset
guitar tuner
edit
Autoscroll
slow
fast
+/-
esc
set tempo
stop
----------------------------------------------------------------------------
			     Pow - Graham Central Station
----------------------------------------------------------------------------
Tabbed by:LittleKnowItAll of http://www.dielaughing.ne1.net
Email:LittleKnowItAll@hotmail.co.uk

Tuning:E,a,d,g



Being a Larry Graham song this is primarily from a slap bassist, relying on the slap and 
technique.


Verse.

pow!.....I got ya....etc.
      h                 h                h           h   p
g--------------------------------------7----9-------------------|
d---------------------------------------------------------------|
a--5---7---------------5--7---x---x-----------------5---7---5---|
E---------0---0----0----------------------------x---------------|


     h                   h               or
g---------------------------|-------------|-------------------|
d---------------------------|-----7-----5-|------6-----7------|
a--5---7---------------5--7-|-------------|--4------5---------|  Repeat
E---------0---0----0--------|--5-----3----|-------------------|

Bridge

What did you expect!!...etc.

g--------------------------------------|
d----------5-------2------3------4-----|
a--------------------------------------|      x 7
E---3--3-------0------1-------2--------|


    h      h     h  p      p
g----------------------------------9-----|
d--------------5--7--5---8--7------------|
a--------5--7------------------10--------|
E--5--7----------------------------------|


Structure.

Verse
bridge with the weird genre change pauses (country line not included in this tabe)
verse
bridge, as shown on tab
verse riff over keyboard solo
bridge over solo
bass solo (verse with a little bit more 'pizzaz' if you know what i mean)
Bridge
verse to fade out.


| /  slide up
| \  slide down
| h  hammer-on
| p  pull-off
| ~  vibrato
| +  harmonic
| x  Mute note
============================================================================
This is an amazing song by one of the greatest if not the greatest bassist who ever 
if you ask me, so have this little guideline to this particular song on me.

It's not the most in depth tab of all time but this is my first tab and I'm in a bit of 
rush. But this is basically the jist of it.
Anyway, feel free to let out the funk with this track it is a great one.

cheers,

LittleKnowItAll of http://www.dielaughing.ne1.net

            
            
Suggest correction
Creating personal tab
Creating personal tab
You can edit any tab online and save it as your Personal.

You can edit, replace or remove any tab part or add personal notes – all changes will be seen only by you.

Personal tabs can be accessed anytime from any device, even offline.
Learn more »
Give kudos to tab author, rate the tab!
1 2 3 4 5
comments
print report bad tab
guest
You may want to rate the tab now too:
select rating
Wanna post a correction for this tab? Suggest correction