Oops, an error
Loading. Please wait.

Pow bass

version 3
version 3

Whole song

Interactive

24,057 views 39 this week
no commentswrite comment
1 2 3 4 5
x 6
add to favorites
×
Save as Personal and add changes to this tab that will be seen only by you. Learn more ›
×
You can save this tab as Personal to edit and correct it or add notes. All changes will be seen only by you. Learn more »
launch autoscroll
font size
0
reset
guitar tuner
edit
Autoscroll
slow
fast
+/-
esc
set tempo
stop
Author
Difficulty
Check out my Youtube cover! http://www.youtube.com/watch?v=JHJY0ZP3PK0

[Main Riff]
G|-------------------7h9---x-------------------------------|
D|-------------------------------------------------7-----5-|
A|-5h7---------5h7-x-----x---5h7-5h7-----------------------|
E|-----0-0--0------------------------0-0--0--0-0/5---x-3---|
  t   t t  t  t   t p   t p t   t   t t  t  t t   p t t p

[Variation 1]
G|------------------7h9---x---------------------6---7--|
D|-----------------------------------------------------|
A|-5h7--------5h7-x-----x---5h7-5h7-----------4---5----|
E|-----0-0--0-----------------------0-0--0--x----------|
  t   t t  t t   t p   t p t   t   t t  t  t t p t p

[Variation 2]
G|-------------------7h9---x-----------------------------|
D|-------------------------------------------------------|
A|-5h7---------5h7-x-----x---5h7-5h7---------------------|
E|-----0-0--0------------------------0-0--0---0-3-3/15/3-|
  t   t t  t  t   t p   t p t   t   t t  t   t t t 

[Verse]
G|-------------------|
D|-----5---2---3---4-|
A|-------------------|
E|-3-----0---1---2---|
  t   p t p t p t p

[Verse Variation]
G|---------------------|
D|-----5---2---3---4---|
A|---------------------|
E|-3-----0---1---2---3-|
  t   p t p t p t p t

 Country Music Part (Stacatto Double Thump)
                                           1.)            2.)
G|-----7-----7------------------------------|--------------|-12/0-|
D|-5-5---5-5-------7-----7--5-x-5-5---------|---------4-4-o|------|
A|-------------5-5---5-5------------7-5-----|-5-5-7-7-----o|------|
E|--------------------------------------7-3-|--------------|------|
  d u p d u p d u p d u p  d u d u d u d u   d u d u d u    p

[Bridge]
G|----------------------9/0-|
D|---------5h7-5-8h7--------|
A|-----5h7-----------10-----|
E|-5h7----------------------|
  t   t   t   t t   t  p

Structure of song:
-----------------------------------
Main Riff (x3)
Variation 1
Main Riff (x3)
Variation 2
-----------------------------------
Verse (x3)
Verse Variation
Pause
Verse (x3)
Verse Variation (x3)
Pause
Verse (x3)
Verse Variation
Country Music Part (double thump) 1:24
-----------------------------------
Main Riff (x3)
Variation 1
Main Riff (x3)
Variation 2
-----------------------------------
Verse (x7)
[Bridge]
-----------------------------------
Main Riff (x3)
Variation 1 
Main Riff (x3)
Variation 2
-----------------------------------
Verse (x7)
[Bridge]
-----------------------------------
Main Riff (x3)
Variation 1
Main Riff (x3)
Variation 1
Main Riff (x3)
Variation 2
-----------------------------------
Verse (x7)
[Bridge]
-----------------------------------
Main Riff (x3)
Variation 1 
Main Riff (until end)


************************************

| h   Hammer-on
| x   dead note
| t   thump
| p   pop
| d   down strike (double thump only)
| u   up strike (double thump only)
| #.) alternate endings

************************************

            
            
Suggest correction
Creating personal tab
Creating personal tab
You can edit any tab online and save it as your Personal.

You can edit, replace or remove any tab part or add personal notes – all changes will be seen only by you.

Personal tabs can be accessed anytime from any device, even offline.
Learn more »
comments
print report bad tab
guest
You may want to rate the tab now too:
select rating
Wanna post a correction for this tab? Suggest correction