Oops, an error
Loading. Please wait.

Am 180 tab

version 1
version 1

Whole song

Interactive

25,192 views 33 this week
7 commentsread comments
1 2 3 4 5
x 14
add to favorites
×
Save as Personal and add changes to this tab that will be seen only by you. Learn more ›
×
You can save this tab as Personal to edit and correct it or add notes. All changes will be seen only by you. Learn more »
launch autoscroll
font size
0
reset
how to read this tab
guitar tuner
edit
Autoscroll
slow
fast
+/-
esc
set tempo
stop
Author
hey its punkdude969,
if you heard this song before you probably saw 28 days later
MAN that movie kicks ass! well here you go.......... 


this is the piano mario theme like intro..

intro/chorus
e[-------------------------
B[-------------------------
G[-0h2---020---------------
D[-----3-----0--232---2553-
A[------------------3------
E[-------------------------

e[----------------------------
B[----------------------------
G[-333333-444444-555555-------
D[-333333-444444-555555-333333
A[-111111-222222-333333-333333
E[----------------------111111

verse
e[------------------
B[------------------
G[-10---------------
D[-10-(12x)-8-------
A[-8--------8-(12x)-
E[----------6-------

iterlude
e[-----------------------
B[-----------------------
G[-----------------------
D[-----------------------
A[-----------3-----1-----
E[-1---------------------

intro 2x
chorus 2x
verse 2x
chorus 2x
verse 2x
chorus 2x
iterlude 2x
chorus 4x

well hope you like it
i must go save the world so bye...

            
            
Suggest correction
Creating personal tab
Creating personal tab
You can edit any tab online and save it as your Personal.

You can edit, replace or remove any tab part or add personal notes – all changes will be seen only by you.

Personal tabs can be accessed anytime from any device, even offline.
Learn more »
comments
print report bad tab
7 comments total. Showing first comments.
+1 reply
Dead__Star 10 May 16, 2007 12:49 PM

Everything that's there is correct! someone tab the solo?

0 reply
mikelowe983 10 Dec 01, 2007 10:27 AM

nah thats not correct at all
instead of

e[----------------------------
B[----------------------------
G[-333333-444444-555555-------
D[-333333-444444-55555
5-333333
A[-111111-222222-333333-333333
E[----------------------111111
it should
be:
e[----------------------------
B[----------------------------
G[-333333--------555555-------
D[-333333-555555-55
5555-333333
A[-111111-555555-333333-333333
E[--------333333--------111111
play it...thats definitely the right way;
Bb5, G5, C5, F5

also...

verse
e[------------------
B[------------------
G[-10---------------
D[-10-(12x)-8-------
A[-8--------8-(12x)-
E
[----------6-------
should
be
verse
e[------------------
B[------------------
G[------------------
D[-3------/-8-------
A[-3-(24x)/-8-(24x)-

E[-1------/-6-------

+1 reply
wolfey89 159 Nov 07, 2008 12:55 PM

actually, the bass note is a B for the second chord, so it may be best to compromise and use:

e|-----
B|-----
G|-0---
D|-0---
A|-2---
E|-----

for the second chord ;)

guest
You may want to rate the tab now too:
select rating
Wanna post a correction for this tab? Suggest correction