Oops, an error
Loading. Please wait.

Emit Anymore Acoustic tab

258 views 1 this week
no commentswrite comment
1 2 3 4 5
3 more votes to show rating
add to favorites
×
Save as Personal and add changes to this tab that will be seen only by you. Learn more ›
×
You can save this tab as Personal to edit and correct it or add notes. All changes will be seen only by you. Learn more »
launch autoscroll
font size
0
reset
how to read this tab
guitar tuner
edit
Autoscroll
slow
fast
+/-
esc
set tempo
stop
Author
Unregistered
-=-=-=-=-=-=-=-=-=-=-=-=-=-=-=-=-=
Emit Anymore (Acoustic Version)
By Grandaddy
-=-=-=-=-=-=-=-=-=-=-=-=-=-=-=-=-=
This is a sumday demo song

        -=-=-=-=-=-=-=-=-=-=-=-=-=-=-=-=-=-=-=
        Standard Tuning:
        E a d g b e

        h = hammer

        Chords:

            C  B6  F  G  G/D  Am  E
            ^  ^   ^  ^  ^    ^   ^
        e[--0--0---1--3-------0---0---]
        B[--1--0---1--0--2----1---0---]
        G[--0--1---2--0--0----2---0---]
        D[--2--0---3--0--0----2---2---]
        A[--3--2---3--2--2--------2---]
        E[------------3--3------------]

        These chords were all transcribed from piano
        -=-=-=-=-=-=-=-=-=-=-=-=-=-=-=-=-=-=-=

INTRO RIFF
e[--0--------0--]
B[--1--1-h-3-1--]
G[--0--------0--]
D[--2--------2--]  (X3)
A[--3--------3--]
E[--------------]


C               B6
more dim sum to dim your soul

F                                   C
but your friends they all heard you say

              G              G/D
your over it, it finally got old

C
but there's more dim sum

B6
on truths have been told

F                          Am
you're gettin' dimmer each day

E              F
soon you won't emit anymore

Am     E         F
       you won't emit anymore

Am     E         F
       you won't emit anymoooooooore

BREAK
e[--0--0--0--1--3--1--]
B[--1--1--1--1--1--1--]
G[--0--0--0--2--2--2--] (X4)
D[--2--0--2--3--X--3--]
A[--3--3--3--3--3--3--]
E[--------------------]

C          B6
oh dim sum it's smooth the way it works

F                        C
it begs you to get outta bed

               G        G/D
and finish the leftovers

C            B6
more dim sum to dim your soul

F                                Am
if you continue to fuck off that way

E                F
one thing is for sure


Am   E       F
     you won't emit anymore

Am   E       F
     you won't emit anymore

Am      E       F
    no, you won't emit anymore

Am  E       F
    ladeedadeeda

F     C

            
            
Suggest correction
Creating personal tab
Creating personal tab
You can edit any tab online and save it as your Personal.

You can edit, replace or remove any tab part or add personal notes – all changes will be seen only by you.

Personal tabs can be accessed anytime from any device, even offline.
Learn more »
Give kudos to tab author, rate the tab!
1 2 3 4 5
comments
print report bad tab
guest
Wanna post a correction for this tab? Suggest correction