Oops, an error
Loading. Please wait.

Recall Recede tab

223 views 1 this week
no commentswrite comment
1 2 3 4 5
3 more votes to show rating
add to favorites
×
Save as Personal and add changes to this tab that will be seen only by you. Learn more ›
×
You can save this tab as Personal to edit and correct it or add notes. All changes will be seen only by you. Learn more »
launch autoscroll
font size
0
reset
how to read this tab
guitar tuner
edit
Autoscroll
slow
fast
+/-
esc
set tempo
stop
Artist: Grandview
Album: Absolutely Nothing [EP]
Track: Recall, Recede
Tuning: Standard (EADGBe)


[Intro/Verse 1]

E|--------------------------------|--------------------------------|
B|--------------------------------|--------------------------------|
G|---------7---------------7------|---------6---------------6------|
D|---0---0---0---0---0---0---0---0|---0---0---0---0---0---0---0---0|
A|--------------------------------|--------------------------------|
E|-7---7-------7---7---7-------7--|-5---5-------5---5---5-------5--|

E|--------------------------------|--------------------------------|
B|--------------------------------|--------------------------------|
G|---------4---------------4------|---------4---------------4------|
D|---0---0---0---0---0---0---0---0|---4---4---4---4---4---4---4---4|x2
A|--------------------------------|--------------------------------|
E|-3---3-------3---3---3-------3--|-3---3-------3---3---3-------3--|


[Break]

E|--------------------------------|--------------------------------|
B|--------------------------------|--------------------------------|
G|---------7---------------11-----|---------4---------------4------|
D|---0---0---0---0---0---0---0---0|---0---0---0---0---0---0---0---0|
A|--------------------------------|--------------------------------|
E|-7---7-------7-/-10--10------10\|-3---3-------3---3---3-------3--|

E|--------------------------------|--------------------------------|
B|--------------------------------|--------------------------------|
G|---------7---------------6------|---------4---------------4------|
D|---0---0---0---0---0---0---0---0|---0---0---0---0---0---0---0---0|
A|--------------------------------|--------------------------------|
E|-7---7-------7-\-5---5-------5-\|-3---3-------3---3---3-------3--|


[Verse 2]

E|--------------------------------|--------------------------------|
B|--------------------------------|--------------------------------|
G|---------7---------------7------|---------6---------------6------|
D|---0---0---0---0---0---0---0---0|---0---0---0---0---0---0---0---0|
A|--------------------------------|--------------------------------|
E|-7---7-------7---7---7-------7--|-5---5-------5---5---5-------5--|

E|--------------------------------|--------------------------------|
B|--------------------------------|--------------------------------|
G|---------4---------------4------|---------4---------------4------|
D|---0---0---0---0---0---0---0---0|---4---4---4---4---4---4---4---4|x2
A|--------------------------------|--------------------------------|
E|-3---3-------3---3---3-------3--|-3---3-------3---3---3-------3--|


[Chorus]

E|--------------------------------|--------------------------------|
B|--------------------------------|--------------------------------|
G|-6--------6---x-4---------------|-11-----------------------------|
D|-0--------0---x-0---------------|-0------------------------------|x4
A|-x--------x---x-x---------------|-x------------------------------|
E|-5--------5---x-3--------3---/--|-10-----------------------------|


[Break]

(Guitar 1) 
(strumming not shown)
E|--------------------------------|--------------------------------|
B|--------------------------------|--------------------------------|
G|-7------------------------------|-6------------------------------|
D|-0------------------------------|-0------------------------------|
A|-x------------------------------|-x------------------------------|
E|-7------------------------------|-5------------------------------|

E|--------------------------------|--------------------------------|
B|--------------------------------|--------------------------------|
G|-2------------------------------|-4------------------------------|
D|-0------------------------------|-0------------------------------|
A|-x------------------------------|-x------------------------------|
E|-2------------------------------|-3------------------------------|

(Guitar 2)

E|--------------------------------|--------------------------------|
B|--------------------------------|--------------------------------|
G|-11--11--11--11--12--12--14--14-|-12--12--12--12--11--11--9---9--|
D|-0---0---0---0---0---0---0---0--|-0---0---0---0---0---0---0---0--|
A|--------------------------------|--------------------------------|
E|--------------------------------|--------------------------------|

E|--------------------------------|--------------------------------|
B|--------------------------------|--------------------------------|
G|-11--11--11--11--9---9---9---9--|-7---7---7---7---7---7---7---7--|
D|-0---0---0---0---0---0---0---0--|-0---0---0---0---0---0---0---0--|x2
A|--------------------------------|--------------------------------|
E|--------------------------------|--------------------------------|

(Guitar 3)
(all notes tremolo picking)
(Rest 4 bars, then)
E|-14--------------15------17-----|-15--------------14------12-----|
B|--------------------------------|--------------------------------|
G|--------------------------------|--------------------------------|
D|--------------------------------|--------------------------------|
A|--------------------------------|--------------------------------|
E|--------------------------------|--------------------------------|

E|-12--------------14-------------|-19-----------------------------|
B|--------------------------------|--------------------------------|
G|--------------------------------|--------------------------------|
D|--------------------------------|--------------------------------|
A|--------------------------------|--------------------------------|
E|--------------------------------|--------------------------------|


[Verse 3]

PM .   .   .   .   .   .   .   .    .   .   .   .   .   .   .   .
E|--------------------------------|--------------------------------|
B|--------------------------------|--------------------------------|
G|-7---7---6---6---4---4---2---2--|-4---4---2---2---6---6---6---6--|
D|-0---0---0---0---0---0---0---0--|-4---4---0---0---0---0---0---0--|x3
A|-x---x---x---x---x---x---x---x--|-x---x---x---x---x---x---x---x--|
E|-7---7---5---5---3---3---2---2--|-3---3---2---2---5---5---5---5--|

PM .   .   .   .   .   .   .   .    .   .   .   .  
E|--------------------------------|--------------------------------|
B|--------------------------------|--------------------------------|
G|-7---7---6---6---4---4---2---2--|-4---4---2---2---4--------------|
D|-0---0---0---0---0---0---0---0--|-4---4---0---0---0--------------|
A|-x---x---x---x---x---x---x---x--|-x---x---x---x---x--------------|
E|-7---7---5---5---3---3---2---2--|-3---3---2---2---3--------------|
 

[Chorus]

PM .   .   .   .   .   .   .   .    .   .   .   .   .   .   .   .
E|--------------------------------|--------------------------------|
B|--------------------------------|--------------------------------|
G|-6---6---6---6---4---4---4---4--|-11--11--11--11--11--11--11--11-|
D|-0---0---0---0---0---0---0---0--|-0---0---0---0---0---0---0---0--|x4
A|-x---x---x---x---x---x---x---x--|-x---x---x---x---x---x---x---x--|
E|-5---5---5---5---3---3---3---3--|-10--10--10--10--10--10--10--10-|


[Outro]

(Guitar 1) 
(strumming not shown)
E|--------------------------------|--------------------------------|
B|--------------------------------|--------------------------------|
G|-7------------------------------|-6------------------------------|
D|-0------------------------------|-0------------------------------|
A|-x------------------------------|-x------------------------------|
E|-7------------------------------|-5------------------------------|

E|--------------------------------|--------------------------------|
B|--------------------------------|--------------------------------|
G|-2------------------------------|-4------------------------------|
D|-0------------------------------|-0------------------------------|
A|-x------------------------------|-x------------------------------|
E|-2------------------------------|-3------------------------------|

(Guitar 2)

E|--------------------------------|--------------------------------|
B|--------------------------------|--------------------------------|
G|-11--11--11--11--12--12--14--14-|-12--12--12--12--11--11--9---9--|
D|-0---0---0---0---0---0---0---0--|-0---0---0---0---0---0---0---0--|
A|--------------------------------|--------------------------------|
E|--------------------------------|--------------------------------|

E|--------------------------------|--------------------------------|
B|--------------------------------|--------------------------------|
G|-11--11--11--11--9---9---9---9--|-7---7---7---7---7---7---7---7--|
D|-0---0---0---0---0---0---0---0--|-0---0---0---0---0---0---0---0--|x2
A|--------------------------------|--------------------------------|
E|--------------------------------|--------------------------------|

(Guitar 3)
(all notes tremolo picking)
E|-14--------------15------17-----|-15--------------14------12-----|
B|--------------------------------|--------------------------------|
G|--------------------------------|--------------------------------|
D|--------------------------------|--------------------------------|
A|--------------------------------|--------------------------------|
E|--------------------------------|--------------------------------|

E|-12--------------14-------------|-10-----------------------------|
B|--------------------------------|--------------------------------|
G|--------------------------------|--------------------------------|
D|--------------------------------|--------------------------------|
A|--------------------------------|--------------------------------|
E|--------------------------------|--------------------------------|

E|-14--------------15------17-----|-15--------------14------12-----|
B|--------------------------------|--------------------------------|
G|--------------------------------|--------------------------------|
D|--------------------------------|--------------------------------|
A|--------------------------------|--------------------------------|
E|--------------------------------|--------------------------------|

E|-12--------------14-------------|-19-----------------------------|
B|--------------------------------|--------------------------------|
G|--------------------------------|--------------------------------|
D|--------------------------------|--------------------------------|
A|--------------------------------|--------------------------------|
E|--------------------------------|--------------------------------|


***********************************
| /   Slide up
| \   Slide down
| x   Dead note
| PM  Palm mute
***********************************

            
            
Suggest correction
Creating personal tab
Creating personal tab
You can edit any tab online and save it as your Personal.

You can edit, replace or remove any tab part or add personal notes – all changes will be seen only by you.

Personal tabs can be accessed anytime from any device, even offline.
Learn more »
Give kudos to tab author, rate the tab!
1 2 3 4 5
comments
print report bad tab
guest
You may want to rate the tab now too:
select rating
Wanna post a correction for this tab? Suggest correction