Oops, an error
Loading. Please wait.

Fire On The Mountain bass

version 1
version 1

Whole song

20,560 views 57 this week
2 commentsread comments
1 2 3 4 5
x 11
add to favorites
×
Save as Personal and add changes to this tab that will be seen only by you. Learn more ›
×
You can save this tab as Personal to edit and correct it or add notes. All changes will be seen only by you. Learn more »
launch autoscroll
font size
0
reset
guitar tuner
edit
Autoscroll
slow
fast
+/-
esc
set tempo
stop
Grateful Dead- Fire on the Mountain (Bass Line)

This is the intro verse and chorus it repeats through the whole song.

G----------------------------------------
D-----9-9--------9-9-----7-7------------
A----------9-------------------5-6-7----
E--7----------7-------5-----------------

Fun line..u can change it up....have fun!

-Petee

            
            
Suggest correction
Creating personal tab
Creating personal tab
You can edit any tab online and save it as your Personal.

You can edit, replace or remove any tab part or add personal notes – all changes will be seen only by you.

Personal tabs can be accessed anytime from any device, even offline.
Learn more »
comments
print report bad tab
2 comments total.
+1 reply
Deadbassist135 10 Jun 26, 2008 07:41 AM

G---------------------------------------------
D-----9-9--------9-9-----7-7------------------
A----------9------7*-------------5-6-7-6*-5*-- *=Correction
E--7----------7-------5-----------------------

This tab was mostly correct, and i suppose you could get by playing it, but i have added the missing notes in and marked them with stars.

-1 reply
mfc1129 10 Mar 18, 2013 12:29 AM

This is a more accurate tab. You can play it here, but it is up an octave starting on the B on the 14th fret of the A string. If you want to play it there, just transpose the same pattern.

G---------------------------------------
D--------9-9-----------9----------------
A-----9-------9-----9------9------------
E--7-------------7------------7---------

G----------------------------------------
D-------7--7------7-4--------------------
A-----7--7------------7-7-5-7------------
E--5--------------------------5-7--------

guest
Wanna post a correction for this tab? Suggest correction