Oops, an error
Loading. Please wait.
We have Chord Pro version of Friend Of The Devil.
It's the closest thing you can get to the original song and it has interactive parts. Check out the tab »
×
137,851 views 213 this week
no commentswrite comment
1 2 3 4 5
x 8
add to favorites
×
Save as Personal and add changes to this tab that will be seen only by you. Learn more ›
×
You can save this tab as Personal to edit and correct it or add notes. All changes will be seen only by you. Learn more »
launch autoscroll
font size
0
reset
how to read this tab
guitar tuner
edit
Autoscroll
slow
fast
+/-
esc
set tempo
stop
Author
#----------------------------------PLEASE NOTE---------------------------------#
#This file is the author's own work and represents their interpretation of the #
#song. You may only use this file for private study, scholarship, or research. #
#------------------------------------------------------------------------------#


Gtr I (E A D G B E) - 'Acoustic Guitar'
Gtr II (E A D G B E) - 'Acoustic Guitar 2'


[Intro]

  Q=208(8=s8)
  G               Em     Gm/D     C       C/B      Am7     G
 2/2
  Gtr I
  H    Q.    E    Q  E E Q  E E   Q   E E Q  E E   Q   E E Q  E  E
e|-----------(0)-|---------------|----------------|--------------(0)-|
B|---------------|------0----0---|-----1-1------1-|-------1----0-----|
G|---------------|----0------0-0-|-----0-0----0---|-----0------0-----|
D|-5----4--------|-2------0------|-----2-2----2---|------------------|
A|---------------|---------------|-3-------2------|-0----------------|
E|---------------|---------------|----------------|---------3--------|
|
 | Gtr II
 | W               W               E E Q   H        E Q   E H
e|---------------|---------------|----------------|------------------|
B|---------------|---------------|---------1------|------------------|
G|---------------|---------------|---------0------|-0h2-----0--------|
D|---------------|---------------|-0-1-2----------|-------2----------|
A|---------------|---------------|----------------|------------------|
E|---------------|---------------|----------------|------------------|

           G/F#       Em          Gm/D  C       C/B       Am7       G6
   Q   E e E  E  Q    Q   E e Q   E E   Q   E E Q   E E    Q    E E  E  E E E
e|-------3----------|-----0-3---------|---------------0-|-----------------0-0-|
B|-----0-----(0)-0--|-----0-------0-0-|-------1-----1---|---------1-------0-0-|
G|-----0------------|-----0-------0-0-|-----0-------0---|-------0---------0---|
D|-5-------4--------|-2-------0-------|-----2-----------|-------2-------2-----|
A|------------------|-----------------|-3-------2-------|--0------------------|
E|------------------|-----------------|-----------------|------------3--------|
|
 | E E Q   Q     Q    E Q   E E E Q     E E Q   E E E E   +E  E E E +E  E Q
e|------------------|-----------------|-----------------|---------------------|
B|------------------|-3-----3---------|-----------------|---------------------|
G|---------0-----x--|-2h4-----4p2p0---|---------2-0---0-|-(0)---0-2-(2)---0---|
D|-0-4S5---4--------|-----------------|-0-1-2-------2---|-----2---------2-----|
A|------------------|-----------------|-----------------|---------------------|
E|------------------|-----------------|-----------------|---------------------|

   G       G/F#        Em         Gm/D  C       C/B       Am7    G6
   Q   E E Q     E E   Q   E E Q  E E   Q   E E Q   E E   Q  E E E E  E E
e|-------0---------3-|-------3------3-|---------------0-|-------------0-0-|
B|-----0---------0---|-----0------0---|-------1-----1---|------1------0-0-|
G|-----0-------------|-----0------0---|-----0-------0---|----0--------0---|
D|-5-------4---------|-2-------0------|-----2-----------|----2-----2------|
A|-------------------|----------------|-3-------2-------|-0---------------|
E|-------------------|----------------|-----------------|--------3--------|
|
 | E Q   E E  Q    E   E E H      E E   E Q   E Q.    E   Q  E E E Q.
e|-------------------|----------------|-----------------|-----------------|
B|-----------(0)-----|-----3------3-5-|-3s1---1-1-------|-----------------|
G|-0-----0-4--0----0-|-4-5------------|-----------------|----2-0---0------|
D|-4-5---------------|----------------|---------------1-|-2------2--------|
A|-------------------|----------------|-----------------|-----------------|
E|-------------------|----------------|-----------------|-----------------|

   G       G/F#      Em      Gm/D     C          C/B     Am7      G6
   Q   E E Q   E E   Q   E E Q  E E   Q  E E  Q    E E    Q   E E E E E E
e|-------0-------3-|-------3------3-|----------------0-|--------------0-0-||
B|-----0-------0---|-----0------0---|------1-------1---|--------1-----0-0-||
G|-----0-----------|-----0------0---|----0---------0---|------0-------0---||
D|-5-------4-------|-2-------0------|----2-------------|------2-----2-----||
A|-----------------|----------------|-3-------2--------|--0---------------||
E|-----------------|----------------|------------------|----------3-------||
|
 | E Q   E E E E E   E E H      E E   Q  E E +E  E Q     +Q.    E E E Q
e|-----------------|----------------|------------------|------------------||
B|-------------3---|-----3----------|-5----3-(3)-------|------------------||
G|-------0-4-0-0-0-|-4-5--------0-0-|-0--0-------0-5---|-(5)----5-5-2-0---||
D|-4S5-------------|----------------|------------------|------------------||
A|-----------------|----------------|------------------|------------------||
E|-----------------|----------------|------------------|------------------||


[1st Verse]

   G      G/F#     Em        Gm/D      C      C/B       Am7       G6
   Q  E E Q  E E   Q    E  E Q   E E   Q  E E Q   E E   Q   E E E E E E
e|------0------3-|---------3-------3-|--------------0-|-------------0-0-|
B|----0------0---|------0--------0---|------1-----1---|-------1-----0-0-|
G|----0----------|------0--------0---|----0-------0---|-----0-------0---|
D|-5------4------|-2---------0-------|----2-----------|-----2-----2-----|
A|---------------|-------------------|-3------2-------|-0---------------|
E|---------------|-------------------|----------------|---------3-------|
|
 | Q  E E H        E E  Q    E E Q     Q  E E E Q   E   E Q   E H
e|------0--------|-------------------|----------------|-----------------|
B|----0---0------|-----(0)-----------|----------------|---------0-------|
G|----0---0------|-----(0)---4-0-0---|----------0-----|-0-2-----0-------|
D|-5------4------|-0-4---------------|----0-1-2-----2-|-------2---------|
A|---------------|-------------------|----------------|-----------------|
E|---------------|-------------------|----------------|-----------------|

   G        G/F#     Em        Gm/D      C      C/B        Am7     G6
   Q    E E Q  E E   Q    E  E Q   E E   Q  E E Q    E E   Q   E E  E  E E E
e|--------0------3-|---------3-------3-|---------------0-|---------------0-0-|
B|------0------0---|------0--------0---|------1------1---|-------1-------0-0-|
G|------0----------|------0--------0---|----0--------0---|-----0---------0---|
D|-5--------4------|-2---------0-------|----2------------|-----2-------2-----|
A|-----------------|-------------------|-3------2--------|-0-----------------|
E|-----------------|-------------------|-----------------|----------3--------|
|
 | E Q.     Q  Q     E E  Q    E E Q     Q  E E E Q.       E E E E +E  E E E
e|-----------------|-------------------|-----------------|-------------------|
B|----------3------|-----(0)-----------|----------1------|-------------------|
G|-0--------0--0---|------0----4-0-0---|-----------------|-2p0---0-(0)---0h2-|
D|-0-5------4------|-0-4-------0-------|-x--0-1-2--------|-----0-------2-----|
A|-----------------|-------------------|-----------------|-------------------|
E|-----------------|-------------------|-----------------|-------------------|


[1st Chorus]

   D                                Am
   Q  E E Q  E E   Q  E E E E E E    E  E E E Q  E E   E E E E  Q     E E
e|----2-2----0-2-|----2-2-2-2---0-|---------0------0-|-------0----------0-|
B|----3-3----3-3-|----3-3-3-3-0---|--------------1-1-|----------------1---|
G|----2------2---|----2---2-2-----|-------2------2---|-----2----------2---|
D|-0-------------|-0--------------|--0h=2--------2---|-0h2------------2---|
A|--------0------|----------------|-----------0------|----------0---------|
E|---------------|----------------|------------------|--------------------|
|
 | Q  Q   H        H      E E Q      E  E Q   H        E E E E  E  Q.
e|---------------|----------------|------------------|--------------------|
B|---------------|----------------|------------------|--------------------|
G|--------2------|--------0-------|-----------2------|-2-0---2-(2)-0------|
D|----0----------|-0------4S5-0---|-(0)-2------------|-----2--------------|
A|---------------|----------------|-------0----------|--------------------|
E|---------------|----------------|------------------|--------------------|

   D                                 Am
   Q  E e Q  E e   E E  Q  Q   E e   E E E E  Q   E E   E E  E E Q   Q
e|----2-2----2-2-|------2------2---|-----0----------0-|------0-0-----0--|
B|----3-3----3-3-|------3------3-0-|-----1--------1---|------1-------1--|
G|----2------2---|------2--2-------|-----2--------2---|------2-------2--|
D|-0-------------|-0-0-------------|-0-2---2----------|-0-2-------------|
A|--------0------|-----------------|----------0-------|----------0------|
E|---------------|-----------------|------------------|-----------------|
|
 | H      H        E Q.    E E Q     E E E E +Q   E E   E Q.     E E Q
e|---------------|-----------------|------------------|-----------------|
B|---------------|-----------------|-------1-(1)------|---1-------------|
G|-2-------------|-----------------|--------------2-0-|----------2-0----|
D|-0------0------|---------4S5-0---|-0-1-2------------|-2------------2--|
A|---------------|-4-5-------------|------------------|-----------------|
E|---------------|-----------------|------------------|-----------------|

   D
   Q  Q  Q  E E    Q   E E Q   E E   Q   E E Q   E E   Q   E E +E  E E E
e|----2-------2-|------2-2-----2-2-|-----2-2-----2-2-|-----2-2-(2)-0-----|
B|----3-----3-3-|------3-3-----3-3-|-----3-3-----3-3-|-----3-3-(3)-0-----|
G|----2-----2---|------2-------2---|-----2-------2---|-----2-------------|
D|-0------------|--0---------------|-0---------------|-0-------------0-2-|
A|-------0------|----------0-------|---------0-------|-------------------|
E|--------------|------------------|-----------------|-------------------|
|
 | Q  Q  Q  Q     +Q   Q   E E E E   E E E E E E E E   E E Q    H
e|----------2---|-(2)--------------|-----------------|-------------------|
B|----3-----3---|-(3)------------3-|-----------------|-------------------|
G|----2-----2---|-(2)--------------|-4p2---2-------2-|-------------------|
D|-0------------|----------2-3-4---|-----4---2-3S4---|-3-2-0-------------|
A|-------0------|------------------|-----------------|-------------------|
E|--------------|------------------|-----------------|----------8\-------|


[2nd Verse]

   G       G/F#      Em      Gm/D     C       C/B        Am7    G6
   Q   E E Q   E E   Q   E E Q  E E   Q   E E  Q   E E   Q  E E E E  E E
e|-------0-------3-|-------3------3-|----------------0-|-------------0-0-|
B|-----0-------0---|-----0------0---|-------1------1---|------1------0-0-|
G|-----0-----------|-----0------0---|-----0--------0---|----0--------0---|
D|-5-------4-------|-2-------0------|-----2------------|----2-----2------|
A|-----------------|----------------|-3--------2-------|-0---------------|
E|-----------------|----------------|------------------|--------3--------|
|
 | E E Q   E Q   E   E E H      E E   E Q   E +Q.    E   Q  E E E Q.
e|-----------------|----------------|------------------|-----------------|
B|-----------------|-----3------3-5-|-3S1---1-(1)------|-----------------|
G|-----0---4-0---0-|-4-5------------|-------0-(0)------|----2-0---0------|
D|-0-5-------------|----------------|----------------1S|=2------2--------|
A|-----------------|----------------|------------------|-----------------|
E|-----------------|----------------|------------------|-----------------|

   G       G/F#     Em      Gm/D      C       C/B       Am7       G6
   Q   E E Q  E E   Q   E E Q   E E   Q   E E Q   E E    Q    E E  E  E E E
e|-------0------3-|-------3-------3-|---------------0-|-----------------0-0-|
B|-----0------0---|-----0-------0---|-------1-----1---|---------1-------0-0-|
G|-----0----------|-----0-------0---|-----0-------0---|-------0---------0---|
D|-5-------4------|-2-------0-------|-----2-----------|-------2-------2-----|
A|----------------|-----------------|-3-------2-------|--0------------------|
E|----------------|-----------------|-----------------|------------3--------|
|
 | E Q   E Q  Q     E Q   E E E Q     E E E E E E E E   +E  E E E +E  E Q
e|-3-----0--------|-----------------|-----------------|---------------------|
B|-3h5-----3------|-------3---------|-------1---------|---------------------|
G|-0--------------|-2S4-----4S2-0---|---------2-0---0-|-(0)---0-2-(2)---0---|
D|---------4------|-----------------|-0-1-2-------2---|-----2---------2-----|
A|----------------|-----------------|-----------------|---------------------|
E|----------------|-----------------|-----------------|---------------------|


[2nd Chorus]

   D                                 Am
   Q  E E Q  E E   Q   E E E E E E   E E E E Q  E E   E E E E Q   E E
e|----2-2----0-2-|-----2-2-2-2---0-|-------0------0-|-------0-------0-|
B|----3-3----3-3-|-----3-3-3-3-0---|------------1-1-|-------------1---|
G|----2------2---|-----2---2-2-----|-----2------2---|-----2-------2---|
D|-0-------------|-0---------------|-0h2--------2---|-0h2---------2---|
A|--------0------|-----------------|---------0------|---------0-------|
E|---------------|-----------------|----------------|-----------------|
|
 | H      H        E Q   E E E Q     Q   Q   H        E E E E E Q   E
e|---------------|-----------------|----------------|-----------------|
B|-3-------------|-----------------|----------------|---1-------------|
G|-2-------------|-------0---------|---------2------|-2---0-2---0-----|
D|-0------0------|---------4-0-0---|----------------|---------------0-|
A|---------------|-4S5-------------|-0---0----------|-----------------|
E|---------------|-----------------|----------------|-----------------|

   D                                 Am
   Q  E e Q  E e   E E Q   Q   E e   E E E E  Q   E E   E E E E Q   Q
e|----2-2----2-2-|-----2-------2---|-----0----------0-|-----0-0-----0--|
B|----3-3----3-3-|-----3-------3-0-|-----1--------1---|-----1-------1--|
G|----2------2---|-----2---2-------|-----2--------2---|-----2-------2--|
D|-0-------------|-0-0-------------|-0-2---2----------|-0-2------------|
A|--------0------|-----------------|----------0-------|---------0------|
E|---------------|-----------------|------------------|----------------|
|
 | H      H        E Q   E E E Q     E E E E +Q   E E   E Q   E E E Q
e|---------------|-----------------|------------------|----------------|
B|-3-------------|-----------------|-------1-(1)------|---1------------|
G|-2-------------|-----------------|--------------2-0-|-------0-2-0----|
D|--------0------|-------0-4-0-----|-0-1-2------------|-2-----------2--|
A|---------------|-4S5---------5---|------------------|----------------|
E|---------------|-----------------|------------------|----------------|

   D
   Q  Q   Q  E E    Q   E E Q   E E   Q  E E Q  E E   Q  E E +E  E E E
e|----2--------2-|------2-2-----2-2-|----2-2----2-2-|----2-2-(2)-0-----|
B|----3------3-3-|------3-3-----3-3-|----3-3----3-3-|----3-3-(3)-0-----|
G|----2------2---|------2-------2---|----2------2---|----2-------------|
D|-0-------------|--0---------------|-0-------------|-0------------0-2-|
A|--------0------|----------0-------|--------0------|------------------|
E|---------------|------------------|---------------|------------------|
|
 | Q  H.           +Q   E E E E Q     W               Q  E E  Q    Q
e|---------------|------------------|---------------|------------------|
B|----3----------|-(3)--------------|-3-------------|--------------0---|
G|----2----------|-(2)--------2-4---|-2-------------|--------------0---|
D|-0-------------|------4S3S4-------|---------------|-0-------0--------|
A|---------------|------------------|---------------|----4S5-----------|
E|---------------|------------------|---------------|------------------|


[3rd Verse]

   G      G/F#      Em      Gm/D     C       C/B       Am7    G6
   Q  E E Q   E E   Q   E E Q  E E   Q   E E Q   E E   Q  E E E E  E E
e|------0-------3-|-------3------3-|---------------0-|-------------0-0-|
B|----0-------0---|-----0------0---|-------1-----1---|------1------0-0-|
G|----0-----------|-----0------0---|-----0-------0---|----0--------0---|
D|-5------4-------|-2-------0------|-----2-----------|----2-----2------|
A|----------------|----------------|-3-------2-------|-0---------------|
E|----------------|----------------|-----------------|--------3--------|
|
 | H      E E Q     E E H      E E   E Q   E Q.    E   Q  E E E Q.
e|----------------|----------------|-----------------|-----------------|
B|----------------|-----3------3-5-|-3S1---1-1-------|-----------------|
G|-0------4-0-----|-4-5------------|-----------------|----2-0---0------|
D|-5----------5---|----------------|---------------1S|=2------2--------|
A|----------------|----------------|-----------------|-----------------|
E|----------------|----------------|-----------------|-----------------|

   G       G/F#      Em      Gm/D     C       C/B         Am7      G6
   Q   E E Q   E E   Q   E E Q  E E   Q   E E  Q    E E    Q   E E E E E E
e|-------0-------3-|-------3------3-|-----------------0-|--------------0-0-|
B|-----0-------0---|-----0------0---|-------1-------1---|--------1-----0-0-|
G|-----0-----------|-----0------0---|-----0---------0---|------0-------0---|
D|-5-------4-------|-2-------0------|-----2-------------|------2-----2-----|
A|-----------------|----------------|-3--------2--------|--0---------------|
E|-----------------|----------------|-------------------|----------3-------|
|
 | E Q   E E E E E   E E H      E E   Q.    E +E  E Q     +Q.    E E E Q
e|-----------------|----------------|-------------------|------------------|
B|-----------------|-----3----------|-5-----3-(3)---1---|-(1)----1-1-------|
G|-0-----0-4-0---0-|-4-5----------0-|-------------0-----|------------2-0---|
D|-4S5---------4---|------------5---|-------------------|------------------|
A|-----------------|----------------|-------------------|------------------|
E|-----------------|----------------|-------------------|------------------|


[3rd Chorus]

   D                                  Am
   Q  E E Q   E E   Q   E E E E E E   E E E E Q  E E   E E E E  Q    E E
e|----2-2-----0-2-|-----2-2-2-2---0-|-------0------0-|-------0---------0-|
B|----3-3-----3-3-|-----3-3-3-3-0---|------------1-1-|---------------1---|
G|----2-------2---|-----2---2-2-----|-----2------2---|-----2---------2---|
D|-0--------------|-0---------------|-0h2--------2---|-0h2-----------2---|
A|--------0-------|-----------------|---------0------|----------0--------|
E|----------------|-----------------|----------------|-------------------|
|
 | Q  Q   Q.    E   E Q   E E E Q     E E Q   H        E E E E +E  Q   E
e|----2-----------|-----------------|----------------|-------------------|
B|----3-----------|-----------------|----------------|-------------------|
G|-2--2-----------|-----------------|---------2------|-2-0---2-(2)-0-----|
D|--------0-----0-|-------0-4-0-0---|----------------|-----2-----------0-|
A|--------0-------|-4S5-------------|-3-0-0----------|-------------------|
E|----------------|-----------------|----------------|-------------------|

   D                                  Am
   Q  E e Q   E e   E E Q   Q   E e   E E E E  Q   E E   E E  E E Q   Q
e|----2-2-----2-2-|-----2-------2---|-----0----------0-|------0-0-----0--|
B|----3-3-----3-3-|-----3-------3-0-|-----1--------1---|------1-------1--|
G|----2-------2---|-----2---2-------|-----2--------2---|------2-------2--|
D|-0--------------|-0-0-------------|-0-2---2----------|-0-2-------------|
A|--------0-------|-----------------|----------0-------|----------0------|
E|----------------|-----------------|------------------|-----------------|
|
 | Q  Q   Q.    E   E E E E E E Q     E E E E +Q   E E   E Q.     E E Q
e|----------------|-----------------|------------------|-----------------|
B|-3------3-------|-----------------|-------1-(1)------|---1-------------|
G|-2------2-------|-----2-----------|--------------2-0-|----------2-0----|
D|----0-----------|-------0-4-0-0---|-0-1-2------------|-2------------2--|
A|----------------|-4S5-------------|------------------|-----------------|
E|----------------|-----------------|------------------|-----------------|

   D
   Q  Q  Q  E E   Q  E E Q  E E   Q  E E Q   E E    Q    E E +E  E E E
e|----2-------2-|----2-2----2-2-|----2-2-----2-2-|-------2-2-(2)-0-----|
B|----3-----3-3-|----3-3----3-3-|----3-3-----3-3-|-------3-3-(3)-0-----|
G|----2-----2---|----2------2---|----2-------2---|-------2-------------|
D|-0------------|-0-------------|-0--------------|--0--------------0-2-|
A|-------0------|--------0------|--------0-------|---------------------|
E|--------------|---------------|----------------|---------------------|
|
 | Q  Q  Q  Q     Q  Q   Q  E E   H      E E E E   +E  Q   E  Q    Q
e|----2-----2---|-----------5---|-5------5-----5-|-(5)-----------------|
B|----3-----3---|-----------7-5-|-7------7-5---5-|-(5)-----------------|
G|----2--2------|---------------|------------7---|-----7---7--7\-------|
D|-0------------|-0------0------|----------------|---------------------|
A|--------------|---------------|----------------|---------------------|
E|--------------|---------------|----------------|---------------------|


[1st Bridge]

   D
   Q    Q  Q  Q    Q    Q  Q  Q    Q   Q   Q   Q      Q    E E +E  Q.
e|------2-----2--|------2-----2--|-----2-------2---|-------2-2-(2)-------|
B|------3-----3--|------3-----3--|-----3-------3---|-------3-3-(3)-0-----|
G|------2-----2--|------2-----2--|-----2-------2---|-------2-2-(2)-0-----|
D|-0-------------|-0-------------|-0-------0-------|---------------2-----|
A|---------0-----|---------0-----|-----------------|--0------------------|
E|---------------|---------------|-----------------|---------------------|
|
 | E Q.    Q  Q    E Q.    Q  Q    E Q   E Q.    E   +E  Q   E  Q     Q
e|---------------|---------------|-----------------|---------------------|
B|-5S7-----7-----|-5S7-----7-----|-5S7---7-------8-|-(8)-7---5--7--------|
G|-x-------x-----|-x-------x-----|-x-----x-------x-|-----x---x-----------|
D|-5S7-----7-----|-5S7-----7-----|-5S7---7-0-----7-|-(7)-7---7-----------|
A|---------------|---------------|-----------------|---------------------|
E|---------------|---------------|-----------------|---------------------|

   C
   E E E  E +Q   E E   Q      Q   E E E E    Q   E E E Q  E   Q   E E Q    E E
e|-------------------|------------------0-|-----------------|---------0--------|
B|-----1--1-(1)----1-|--------1---1---1-1-|--------1--------|-----1-1------1-1-|
G|-----0--0-(0)----0-|--------0---0---0---|--0---0---0------|-----0-0------0-0-|
D|-0-2-----------2---|--------2---2-------|--2---2----------|-----2------------|
A|-3-----------------|-3------------3-----|--3---------3--0-|-3----------------|
E|-------------------|--------------------|-----------------|------------------|
|
 | Q   Q     Q   Q     E    Q   E E E E E   +Q.    E E Q  E   E E E E E Q.
e|---------------3---|--------------------|-----------------|------------------|
B|-5---------1-------|-6b8==6---6-6r6-----|-----------------|------------------|
G|-5---------0-------|------------------5-|-(5)--------5----|---5--------------|
D|-5---------2-------|----------------0---|--------6-7----6-|-7---7-5---5------|
A|-----7\------------|--------------------|-----------------|---------7--------|
E|-------------------|--------------------|-----------------|------------------|

   D
   Q  E E Q    E E   Q  E E Q    E E   Q  Q  +E Q.      Q.   E +E  E Q
e|----2-2------2-2-|----2-x------2-2-|----2--(2)------|------0-(0)-0-----|
B|----3-3------3-3-|----3-x------3-3-|----3--(3)------|------3-(3)-3-3---|
G|----2-2------2-2-|----2-x------2-2-|----2--(2)------|------2-(2)---2---|
D|-0---------------|-0---------------|----------0-----|-0----------------|
A|--------0--------|--------0--------|-0--------------|------------------|
E|-----------------|-----------------|----------------|------------------|
|
 | H      E Q.       Q  Q   E Q.       Q  Q   E Q   E   Q.   E +E  Q   E
e|-----------------|-----------------|----------------|------------------|
B|--------5S7------|-7------5S7------|-7------5S7---7-|------8-(8)-7-----|
G|--------x--------|-x------x--------|-x------x-----x-|------x-(x)-x-----|
D|--------5S7------|-7------5S7------|-7------5S7---7-|------7-(7)-7-----|
A|-----------------|-----------------|----------------|------------------|
E|-----------------|-----------------|----------------|------------------|

   Am                                C
   Q   Q  Q  E E   Q   Q   Q   E E   Q.    E Q   Q
e|-----0-----0-0-|-----0-------0-0-|----------------|
B|-----1-----1-1-|-----1-------1-1-|---------1---1--|
G|-----2-----2-2-|-----2-------2-2-|-0-----0-0------|
D|--------2------|---------2-------|-2-----2-2------|
A|-0-------------|-0---------------|-3-----3-0------|
E|---------------|-----------------|----------------|
|
 | H      H        E Q   E E E Q     E E E E E E Q
e|---------------|-3-----3-3-------|-3---3-3--------|
B|-5\------------|-3h5-----5-3-----|-3h5-5-5-5p3----|
G|-x\------------|-------------5---|-------------5--|
D|-5\------------|-----------------|----------------|
A|---------------|-----------------|----------------|
E|---------------|-----------------|----------------|

   D
   Q  E E Q  Q       Q   E E E Q   E    Q    E E E Q    E   Q   E E +E  Q.
e|------2----------|-----2-3-------2-|-------2-2--------2-|-----2-2-(2)-2-----|
B|----3-3----------|-----3-3-------3-|-------3-3--------3-|-----3-3-(3)-3-----|
G|----2-2----------|-----2-2---2-----|-------2-2---2------|-----2-2-(2)-2-----|
D|-0--0------0-----|-0---------0-----|--0----------0------|-0-----------------|
A|--------0--------|---------0-------|-----------0--------|-------------------|
E|-----------------|-----------------|--------------------|-------------------|
|
 | Q  Q   Q  E  E    E E Q   E E E E   +E  E E E E E Q      E E E E  E  E  Q
e|-----------------|-----------------|--------------------|-------------------|
B|-7---------------|-----------------|--------------------|-------------------|
G|-7---------------|---------7-------|--------------------|----------------0--|
D|----7---7--------|---------9p7---7-|-(7)-----7----------|-------0--4--0--0--|
A|----7---9----(7)-|-7-8-9-------9---|-----8-9---8-7-5\---|-0-4-5-------------|
E|-----------------|-----------------|--------------------|-------------------|


[4th Verse]

   G       G/F#      Em      Gm/D     C       C/B       Am7    G6
   Q   E E Q   E E   Q   E E Q  E E   Q   E E Q   E E   Q  E E E E  E E
e|-------0-------3-|-------3------3-|---------------0-|-------------0-0-|
B|-----0-------0---|-----0------0---|-------1-----1---|------1------0-0-|
G|-----0-----------|-----0------0---|-----0-------0---|----0--------0---|
D|-5-------4-------|-2-------0------|-----2-----------|----2-----2------|
A|-----------------|----------------|-3-------2-------|-0---------------|
E|-----------------|----------------|-----------------|--------3--------|
|
 | E Q   E E E E E   E E H      E E   E Q   E Q.    E   Q  E E E Q.
e|-----------------|----------------|-----------------|-----------------|
B|-----------------|-----3------3-5-|-3S1---1-1-------|-----------------|
G|-0-----0-4p0---0-|-4-5------------|-----------------|----2-0---0------|
D|-4-5---------5---|----------------|---------------1-|-2------2--------|
A|-----------------|----------------|-----------------|-----------------|
E|-----------------|----------------|-----------------|-----------------|

   G       G/F#     Em      Gm/D       C       C/B       Am7     G6
   Q   E E Q  E E   Q   E E Q    E E   Q   E E Q   E E   Q   E E E E E E
e|-------0------3-|-------3--------3-|---------------0-|-------------0-0-|
B|-----0------0---|-----0--------0---|-------1-----1---|-------1-----0-0-|
G|-----0----------|-----0--------0---|-----0-------0---|-----0-------0---|
D|-5-------4------|-2-------0--------|-----2-----------|-----2-----2-----|
A|----------------|------------------|-3-------2-------|-0---------------|
E|----------------|------------------|-----------------|---------3-------|
|
 | E E E E Q  E E   E E E E E Q.       E E E E E E E E   E E E E E E Q
e|----------------|------------------|-----------------|-----------------|
B|---------3------|------------------|-----------------|-----------------|
G|-------0-0------|-----4-0---0------|-------0-2-0---0-|-0---0-2-----0---|
D|-0-4-5---4--0-4-|-2-0-----0--------|-0-1-2-------2---|---2-------2-----|
A|----------------|------------------|-----------------|-----------------|
E|----------------|------------------|-----------------|-----------------|


[4th Chorus]

   D                                  Am
   Q  E E Q  E E   Q    E E E E E E   E E E E Q  E E   E  E  E E  Q    E E
e|----2-2----0-2-|------2-2-2-2---0-|-------0------0-|---------0---------0-|
B|----3-3----3-3-|------3-3-3-3-0---|------------1-1-|-----------------1---|
G|----2------2---|------2---2-2-----|-----2------2---|-------2---------2---|
D|-0-------------|-0----------------|-0h2--------2---|-0h=2------------2---|
A|--------0------|------------------|---------0------|------------0--------|
E|---------------|------------------|----------------|---------------------|
|
 | W               E Q.     E E Q     Q   Q   H        E  E  E E +E  Q   E
e|---------------|------------------|----------------|---------------------|
B|---------------|------------------|----------------|---(1)---------------|
G|-2-------------|------------------|---------2------|-2--0----2-(2)-0-----|
D|-0-------------|----------4-0-0---|----------------|-------2-----------0-|
A|---------------|-4S5--------------|-0---0----------|---------------------|
E|---------------|------------------|----------------|---------------------|

   D                                 Am
   Q  E e Q  E e   E E Q   Q   E e   E E E E  Q   E E   E E  E E Q   Q
e|----2-2----2-2-|-----2-------2---|-----0----------0-|------0-0-----0--|
B|----3-3----3-3-|-----3-------3-0-|-----1--------1---|------1-------1--|
G|----2------2---|-----2---2-------|-----2--------2---|------2-------2--|
D|-0-------------|-0-0-------------|-0-2---2----------|-0-2-------------|
A|--------0------|-----------------|----------0-------|----------0------|
E|---------------|-----------------|------------------|-----------------|
|
 | W               E Q   E E E Q     E E E E +Q   Q     E Q.     E E Q
e|---------------|-----------------|------------------|-3---------------|
B|-3-------------|-----------------|-------1-(1)------|-3-5------5-3----|
G|-2-------------|-----------------|------------------|--------------5--|
D|---------------|-------0-4-0-0---|-0-1-2------------|-----------------|
A|---------------|-4S5-------------|------------------|-----------------|
E|---------------|-----------------|------------------|-----------------|

   D
   Q  Q  Q  E E   Q  E E Q   E E   Q   E E Q   E E   Q   E   E +E  E E E
e|----2-------2-|----2-2-----2-2-|-----2-2-----2-2-|-----2---2-(2)-0-----|
B|----3-----3-3-|----3-3-----3-3-|-----3-3-----3-3-|-----3---3-(3)-0-----|
G|----2-----2---|----2-------2---|-----2-------2---|-----2---------------|
D|-0------------|-0--------------|-0---------------|-0---------------0-2-|
A|-------0------|--------0-------|---------0-------|---------------------|
E|--------------|----------------|-----------------|---------------------|
|
 | Q  Q  Q  Q     Q  E E E E E E   E Q   E E E E E   Q  +Q      H
e|--------------|----------------|-----------------|---------------------|
B|-7-----7------|----------------|-----------------|---------------------|
G|-7--7--7--7---|----------7-----|-----------------|---------------------|
D|----7-----7---|-7----------9-7-|---7-------7-----|---------------------|
A|--------------|----7-8-9-------|-9-----8-9---8S7-|-5--(5)\-------------|
E|--------------|----------------|-----------------|---------------------|


[Instrumental Verse]

   G       G/F#     Em      Gm/D      C      C/B       Am7     G6
   Q   E E Q  E E   Q   E E Q   E E   Q  E E Q   E E   Q   E E E E E E
e|-------0------3-|-------3-------3-|--------------0-|-------------0-0-|
B|-----0------0---|-----0-------0---|------1-----1---|-------1-----0-0-|
G|-----0----------|-----0-------0---|----0-------0---|-----0-------0---|
D|-5-------4------|-2-------0-------|----2-----------|-----2-----2-----|
A|----------------|-----------------|-3------2-------|-0---------------|
E|----------------|-----------------|----------------|---------3-------|
|
 | E Q   E H        E E E E E Q   E   Q  E E E E E E   E Q   E E E Q
e|----------------|-----------------|----------------|-----------------|
B|-3-----3-3------|-----------------|--------------1-|-----------------|
G|-2-4-----4------|-4-2-4-5---4S==0-|----------0-2-0-|---0-----0-2-----|
D|----------------|-----------0-----|----0-1-2-------|-2-----2---------|
A|----------------|-----------------|----------------|-----------------|
E|----------------|-----------------|----------------|-----------------|

   G      G/F#       Em      Gm/D       C       C/B       Am7       G6
   Q  E E  Q   E E   Q   E E Q   E  E   Q   E E Q   E E    Q    E E E E E E
e|------0--------3-|-------3--------3-|---------------0-|---------------0-0-|
B|----0--------0---|-----0-------0----|-------1-----1---|---------1-----0-0-|
G|----0------------|-----0-------0----|-----0-------0---|-------0-------0---|
D|-5-------4-------|-2-------0--------|-----2-----------|-------2-----2-----|
A|-----------------|------------------|-3-------2-------|--0----------------|
E|-----------------|------------------|-----------------|-----------3-------|
|
 | Q  Q   +Q   E E   E E E E E E Q      E E E E E E E E   +E  E E E E E Q
e|-----------------|------------------|-----------------|-------------------|
B|----8---(8)------|------------------|-------1-------1-|-(1)-----1---------|
G|----x---(x)------|---7-9-7----------|---------2-0---0-|-(0)-----0---------|
D|----9---(9)--7-8-|-9-------8S7-5\---|-0-1-2-------2---|-----1-2---1-0-----|
A|-----------------|------------------|-----------------|---------------3---|
E|-----------------|------------------|-----------------|-------------------|


[Instrumental Chorus]

   D                                    Am
    Q    E E Q  E E   Q   E E E E E E   E E E E Q  E E   E E E E  Q    E E
e|-------2-2----0-2-|-----2-2-2-2---0-|-------0------0-|-------0---------0-|
B|-------3-3----3-3-|-----3-3-3-3-0---|------------1-1-|---------------1---|
G|-------2------2---|-----2---2-2-----|-----2------2---|-----2---------2---|
D|--0---------------|-0---------------|-0h2--------2---|-0h2-----------2---|
A|-----------0------|-----------------|---------0------|----------0--------|
E|------------------|-----------------|----------------|-------------------|
|
 | +Q    Q   H        E Q   E E E Q     E E Q   H        E Q   E +E  Q   E
e|------------------|-----------------|----------------|-------------------|
B|------------------|-----------------|----------------|---1---------------|
G|-----------2------|-------0-0-------|---------2------|-2-----2-(2)-0-----|
D|-----------0------|---------4-0-0---|-0-2-----2------|-----------------0-|
A|-(3)\-------------|-4S5-------------|-----0----------|-------------------|
E|------------------|-----------------|----------------|-------------------|

   D                                 G
   Q  E e Q  E e   E E Q   Q   E e   E E E E  Q   E E   E E  E E Q   Q
e|----2-2----2-2-|-----2-------2---|-----0----------0-|------0-0-----0--|
B|----3-3----3-3-|-----3-------3-0-|-----1--------1---|------1-------1--|
G|----2------2---|-----2---2-------|-----2--------2---|------2-------2--|
D|-0-------------|-0-0-------------|-0-2---2----------|-0-2-------------|
A|--------0------|-----------------|----------0-------|----------0------|
E|---------------|-----------------|------------------|-----------------|
|
 | H      H        E Q   E E E Q     E E E E +Q   E E   E Q.     E E Q
e|---------------|-----------------|------------------|-----------------|
B|-3-------------|-----------------|------------------|-----------------|
G|-2-------------|-----------------|-------5-(5)------|---7-------------|
D|--------0------|-------0-4-0-----|--------------7-5-|----------7-5----|
A|--------0------|-4S5---------5---|-5-6-7------------|-7------------7--|
E|---------------|-----------------|------------------|-----------------|

   D
   Q  Q   Q  E E   Q  E E Q    E E   Q      E E Q   E E   Q  E  E +E  E E E
e|----2--------2-|----2-2------2-2-|--------2-2-----2-2-|----2--2-(2)-0-----|
B|----3------3-3-|----3-3------3-3-|--------3-3-----3-3-|----3--3-(3)-0-----|
G|----2------2---|----2--------2---|--------2-------2---|----2--------------|
D|-0-------------|-0---------------|-0------------------|-0-------------0-2-|
A|--------0------|--------0--------|------------0-------|-------------------|
E|---------------|-----------------|--------------------|-------------------|
|
 |                                                           ~~
 | Q  H.           Q  E E E Q.       E    E Q   E E E E   Q  H.
e|---------------|-----------------|--------------------|-------------------|
B|----7----------|-----------------|-6b7==6r6---7-6-5---|-------------------|
G|----7----------|----7-6-7-7------|------------------7-|-7--7--------------|
D|-0-------------|-----------------|--------------------|-------------------|
A|---------------|-----------------|--------------------|-------------------|
E|---------------|-----------------|--------------------|-------------------|


[2nd Bridge]

   D
   Q    Q  Q   Q    Q    Q  Q   Q    Q    Q  Q   Q      Q    E E +E  Q.
e|------2------2--|------2------2--|------2------2---|-------2-2-(2)-------|
B|------3------3--|------3------3--|------3------3---|-------3-3-(3)-0-----|
G|------2------2--|------2------2--|------2------2---|-------2-2-(2)-0-----|
D|-0--------------|-0--------------|-0-------0-------|---------------2-----|
A|---------0------|---------0------|-----------------|--0------------------|
E|----------------|----------------|-----------------|---------------------|
|
 | E Q.    Q   Q    E Q.    Q   Q    E Q.    E E E E   +E  Q   E  Q     Q
e|----------------|----------------|-----------------|---------------------|
B|-5S7-----7\-----|-5S7-----7\-----|-5S7-----7-5-7-8-|-(8)-7---5--7--------|
G|-x-x-----x\-----|-x-x-----x\-----|-x-x-----x-----x-|-----x---x-----------|
D|-5S7-----7\-----|-5S7-----7\-----|-5S7-----7-----7-|-(7)-7---7-----------|
A|----------------|----------------|-----------------|---------------------|
E|----------------|----------------|-----------------|---------------------|

   C
   E  E E E +Q   E E   Q    Q  E E E  E
e|-------------------|----------------0-|
B|------1-1-(1)----1-|------1--1---1--1-|
G|------0-0-(0)----0-|------0--0---0----|
D|-0--2----------2---|------2--2--------|
A|-3-----------------|-3---------3------|
E|-------------------|------------------|
|
 | H         Q   Q     E Q.    E E Q
e|---------------3---|-3-------3--------|
B|-5\--------1---3---|-3-5-----5-3------|
G|-x\----------------|-------------5\---|
D|-5\----------------|------------------|
A|-------------------|------------------|
E|-------------------|------------------|

   Q  E E E    Q  E   Q   E E  Q    E   E
e|------------------|----------0----------|
B|------1-----------|-----1-1-------1---1-|
G|-0--0---0---------|-----0-0-------0---0-|
D|-2--2-------------|-----2---------------|
A|-3-----------3--0-|-3-------------------|
E|------------------|---------------------|
|
 | Q  Q   E    Q  E   E E E E +Q   +Q
e|------------------|---------------------|
B|----0---6b8==6--6-|-6r6-5---------------|
G|----0-------------|-------5-(5)--(5)\---|
D|------------------|---------------------|
A|------------------|---------------------|
E|------------------|---------------------|

   D
   Q  E E Q    E E   Q  E E Q    E E   Q  Q  +E Q.     Q.     E +E  E Q
e|----2-2------2-2-|----2-x------2-2-|----2--(2)-----|--------0-(0)-0-----|
B|----3-3------3-3-|----3-x------3-3-|----3--(3)-----|--------3-(3)-3-3---|
G|----2-2------2-2-|----2-x------2-2-|----2--(2)-----|--------2-(2)---2---|
D|-0---------------|-0---------------|----------0----|-0------------------|
A|--------0--------|--------0--------|-0-------------|--------------------|
E|-----------------|-----------------|---------------|--------------------|
|
 | H      E Q.       Q  Q   E Q.       Q  Q   E Q.     E  E E E  E  Q   E
e|-----------------|-----------------|---------------|--------------------|
B|--------5S7------|-7------5S7------|-7------5S7----|-7--5-7-8--8--7-----|
G|--------xSx------|-x------xSx------|-x------xSx----|-x------x--x--x-----|
D|-0------5S7------|-7------5S7------|-7------5S7----|-7------7--7--7-----|
A|-----------------|-----------------|---------------|--------------------|
E|-----------------|-----------------|---------------|--------------------|

   Am                                  C
   Q   Q    Q  E E   Q   Q   Q   E E   Q.    E Q   Q
e|-----0-------0-0-|-----0-------0-0-|----------------|
B|-----1-------1-1-|-----1-------1-1-|---------1---1--|
G|-----2-------2-2-|-----2-------2-2-|-0-----0-0------|
D|----------2------|---------2-------|-2-----2-2------|
A|-0---------------|-0---------------|-3-----3-0------|
E|-----------------|-----------------|----------------|
|
 | Q  +Q    H        E Q   E E E Q     E  Q  E E E Q
e|-----------------|-3-----3-3-------|-3-----3-3------|
B|-5--(5)\---------|-3-5---5-5-3-----|-3--5--5-5-3----|
G|-x--(x)\---------|-------------5---|-------------5--|
D|-5--(5)\---------|-----------------|----------------|
A|-----------------|-----------------|----------------|
E|-----------------|-----------------|----------------|

   D
   Q  E E Q  Q         Q    E E E Q   E
e|------2-------|-----------2-3-------2-|
B|----3-3-------|-----------3-3-------3-|
G|----2-2-------|-----------2-2---2-----|
D|-0--0------0--|------0----------0-----|
A|--------0-----|---------------0-------|
E|--------------|-----------------------|
|
 | Q  Q   H        a   Q    H       Q
e|-2------------|-10-(10)--10-----------|
B|-3------------|-10--12---10-----------|
G|----2---------|-----------------------|
D|--------0-----|-----------------------|
A|--------------|-----------------------|
E|--------------|-----------------------|

      Q    E E  E  Q   E    Q    E E +E  Q.
e|---------2-2---------2-|-------2-2-(2)-2-----|
B|---------3-3---------3-|-------3-3-(3)-3-----|
G|---------2-2-----2-----|-------2-2-(2)-2-----|
D|----0------------0-----|--0------------------|
A|--------------0--------|---------------------|
E|-----------------------|---------------------|
|
 | a  E  Q   E +E  E E E   +H         H
e|-5-(5)-----------------|---------------------|
B|-5--6--5---5-(5)-------|---------------------|
G|-----------------7-7-7-|-(7)\----------------|
D|-----------------------|---------------------|
A|-----------------------|---------------------|
E|-----------------------|---------------------|


[5th Verse]

   G       G/F#      Em      Gm/D     C       C/B       Am7     G6
   Q   E E Q   E E   Q   E E Q  E E   Q   E E Q   E E   Q   E E E E  E E
e|-------0-------3-|-------3------3-|---------------0-|--------------0-0-|
B|-----0-------0---|-----0------0---|-------1-----1---|-------1------0-0-|
G|-----0-----------|-----0------0---|-----0-------0---|-----0--------0---|
D|-5-------4-------|-2-------0------|-----2-----------|-----2-----2------|
A|-----------------|----------------|-3-------2-------|-0----------------|
E|-----------------|----------------|-----------------|---------3--------|
|
 | E Q   E E Q   E   E E H      E E   E Q   E Q.    E   E E E E E Q.
e|-----------------|----------------|-----------------|------------------|
B|-----------------|-----3------3-5-|-3S1---1-1-------|------------------|
G|-0-----0-0-----0-|-4-5------------|-----------------|---0-2-0---0------|
D|-4S5-----4-5-----|----------------|---------------1-|-2-------2--------|
A|-----------------|----------------|-----------------|------------------|
E|-----------------|----------------|-----------------|------------------|

   G       G/F#       Em     Gm/D       C       C/B       Am7      G6
   Q   E E Q    E E   Q  E E Q    E E   Q   E E Q   E E    Q   E E E E E E
e|-------0--------3-|------3--------3-|---------------0-|--------------0-0-|
B|-----0--------0---|----0--------0---|-------1-----1---|--------1-----0-0-|
G|-----0------------|----0--------0---|-----0-------0---|------0-------0---|
D|-5-------4--------|-2------0--------|-----2-----------|------2-----2-----|
A|------------------|-----------------|-3-------2-------|--0---------------|
E|------------------|-----------------|-----------------|----------3-------|
|
 | E E E E E Q.       Q  E E E Q.       E E E E E E E E   +Q   E E E Q   E
e|------------------|-----------------|-----------------|------------------|
B|------------------|-----------------|-------1---------|------------------|
G|-------0---0------|----4-0---0------|-------0-2-0---0-|-(0)--2-0---0-----|
D|-0-4-5---4--------|-2------0--------|-0-1-2-------2---|----------2-----0-|
A|------------------|-----------------|-----------------|------------------|
E|------------------|-----------------|-----------------|------------------|


[5th Chorus]

   D                                 Am
   Q  E E Q  E E   Q   E E E E E E   E E E E Q   E E   E E E E  Q    E E
e|----2-2----0-2-|-----2-2-2-2---0-|-------0-------0-|-------0---------0-|
B|----3-3----3-3-|-----3-3-3-3-0---|-------------1-1-|---------------1---|
G|----2------2---|-----2---2-2-----|-----2-------2---|-----2---------2---|
D|-0-------------|-0---------------|-0h2---------2---|-0h2-----------2---|
A|--------0------|-----------------|---------0-------|----------0--------|
E|---------------|-----------------|-----------------|-------------------|
|
 | H      H        E Q   E E E Q     Q   Q   Q.    E   E E E E +E  Q   E
e|---------------|-----------------|-----------------|-------------------|
B|---------------|-----------------|-----------------|---1---------------|
G|-2-------------|-------0---0-0---|---------2-------|-2-0---2-(2)-0-----|
D|-0------0------|---------4---0---|---------------2-|-----2-----------0-|
A|--------0------|-4S5-------------|-0---0-----------|-------------------|
E|---------------|-----------------|-----------------|-------------------|

   D
   Q  E e Q  E e   E E Q   Q   E e   E E E E  Q   E E   E E E E Q   Q    W
e|----2-2----2-2-|-----2-------2---|-----0----------0-|-----0-0-----0--|-2----*|
B|----3-3----3-3-|-----3-------3-0-|-----1--------1---|-----1-------1--|-3----*|
G|----2------2---|-----2---2-------|-----2--------2---|-----2-------2--|-2----*|
D|-0-------------|-0-0-------------|-0-2---2----------|-0-2------------|-0----*|
A|--------0------|-----------------|----------0-------|---------0------|------*|
E|---------------|-----------------|------------------|----------------|------*|
|
 | H      H        E Q   E E E Q     E E E E +Q   E E   E Q   E E E Q    W
e|---------------|-----------------|------------------|----------------|-2----*|
B|-3-------------|-----------------|-------1-(1)------|---1------------|-3----*|
G|-2-------------|-----------------|--------------2-0-|---------2-0----|-2----*|
D|--------0------|-------0-4-0-0---|-0-1-2------------|-2-----2-----2--|-0----*|
A|---------------|-4S5-------------|------------------|----------------|------*|
E|---------------|-----------------|------------------|----------------|------*|



Duration Legend
---------------
W - whole; H - half; Q - quarter; E - 8th; S - 16th; T - 32nd; X - 64th; a - acciaccatura
+ - note tied to previous; . - note dotted; .. - note double dotted
Uncapitalized letters represent notes that are staccato (1/2 duration)
Irregular groupings are notated above the duration line
Duration letters will always appear directly above the note/fret number it represents the
duration for.  Duration letters with no fret number below them represent rests.  Multi-
bar rests are notated in the form Wxn, where n is the number of bars to rest for.  Low
melody durations appear below the staff

************************************

| x    Dead note
| (n)  Ghost note
| h    Hammer-on
| p    Pull-off
| r    Release
| b    Bend
| \    Slide down
| s    Slide

************************************

            
            
Suggest correction
Creating personal tab
Creating personal tab
You can edit any tab online and save it as your Personal.

You can edit, replace or remove any tab part or add personal notes – all changes will be seen only by you.

Personal tabs can be accessed anytime from any device, even offline.
Learn more »
comments
print report bad tab
guest
You may want to rate the tab now too:
select rating
Wanna post a correction for this tab? Suggest correction