Oops, an error
Loading. Please wait.

Good Lovin tab

version 2
version 2

Whole song

11,600 views 24 this week
no commentswrite comment
1 2 3 4 5
x 8
add to favorites
×
Save as Personal and add changes to this tab that will be seen only by you. Learn more ›
×
You can save this tab as Personal to edit and correct it or add notes. All changes will be seen only by you. Learn more »
launch autoscroll
font size
0
reset
how to read this tab
guitar tuner
edit
Autoscroll
slow
fast
+/-
esc
set tempo
stop
Author
Difficulty
Good Lovin' - Grateful Dead

h - hammer on
p - pull off
/ - slide up
\ - slide down
b - bend
~ - vibrato
x - scratch
s - shark



Old Style Intro -
|---------------------------------|
|---------------------------------|
|---------------------------------|
|---------------------------------|
|-----1h2-3--3--3p1---1--1----1---|
|---3---------------3-------3-----|

New Intro -
|--------------------------------|
|--------------1------3------1---|
|-------0----2------4------2-----|
|-----2----3------5------3-------|
|---3----------------------------|
|--------------------------------|

|---0--1--3---1/-3-3-1-0--1--3---|
|---1--1--3---1/-3-3-1-1--1--3---|
|---0--2--4---2/-4-4-2-0--2--4---|
|---2--3--5---3/-5-5-3-2--3--5---|
|---3------------------3---------|
|--------------------------------|

Verse Riff -
|---0---1---3-3---1---|
|---1---1---3-3---1---|
|---0---2---4-4---2---|
|---2---3---5-5---3---|
|---3-----------------|
|---------------------| x4

Jerry              Bobby
|---0--1--3---|    |--------8\7-------3\1---|
|---1--1--3---|    |------------------------|
|---0--2--4---|    |------9---------4-------|
|---2--3--5---|    |---10---------5---------|
|---3---------|    |------------------------| 
|-------------| x4 |------------------------| x4

|---0--1--0---1-0---|
|---1--1--1---1-1---|
|---0--2--0---2-0---|
|---2--3--2---3-2---|
|---3-----3-----3---|
|-------------------| x2

|---5--5--x-5--5--x-5--5--5/7-7--7--7--7-7\---|
|---6--6--x-6--6--x-6--6--6/8-8--8--8--8-8\---|
|---5--5--x-5--5--x-5--5--5/7-7--7--7--7-7\---|
|---------------------------------------------|
|---------------------------------------------|
|---------------------------------------------|


            
            
Suggest correction
Creating personal tab
Creating personal tab
You can edit any tab online and save it as your Personal.

You can edit, replace or remove any tab part or add personal notes – all changes will be seen only by you.

Personal tabs can be accessed anytime from any device, even offline.
Learn more »
comments
print report bad tab
guest
You may want to rate the tab now too:
select rating
Wanna post a correction for this tab? Suggest correction