Oops, an error
Loading. Please wait.

The Siren tab

version 2
version 2

Whole song

Interactive

1,675 views 9 this week
3 commentsread comments
1 2 3 4 5
2 more votes to show rating
add to favorites
×
Save as Personal and add changes to this tab that will be seen only by you. Learn more ›
×
You can save this tab as Personal to edit and correct it or add notes. All changes will be seen only by you. Learn more »
launch autoscroll
font size
0
reset
how to read this tab
guitar tuner
edit
Autoscroll
slow
fast
+/-
esc
set tempo
stop
Author
Difficulty
-------------------------------------------------------------------------------
                            The Siren - Graveyard
-------------------------------------------------------------------------------
Tabbed by: VakiPitsi

Tuning: Standard (eBGDAE)

NOTE: The song is originally played in D tunning (DGCFAD) and with 2 guitars but it can be played with one 
      guitar in Standard tunning as well,only changing the form of the D# chord that in the D tuning is 
      played as a bare chord on the 1st fret. Below I will be using the one that I find the easier to play
      and that it sounds the best imo. There are a lot of different variations of the D# chord so you can 
      find the one that suits your playing the most or sounds the best to you. So if you are a lazy bastard 
      with no friends to play with like me and you're bored to tune down your guitar, this tab is for you! 

      So here we go:


    Gm     D#  F   Gm
e|--3--3-------1---3--3--------------------------------------------------------------|
B|--3--3-------1---3--3--------------------------------------------------------------|
G|--3--3---3---2---3--3--(The last Gm is played with a sharp upstroke)---------------|
D|--5--5---5---3---5--5--------------------------------------------------------------|
A|--5--5---6---3---5--5--------------------------------------------------------------|
E|--3--3---6---1---3--3--------------------------------------------------------------|

(0:28)Gm                Gm    Gm      D#  F  Gm       Gm      D#  F  Gm       Gm      D#  F  Gm
e|----3------------------3-----3--3-------1---3--3-----3--3-------1---3--3-----3--3-------1---3--3--|
B|----3------------------3-----3--3-------1---3--3-----3--3-------1---3--3-----3--3-------1---3--3--|
G|----3-------3-5p3------3-----3--3---3---2---3--3-----3--3---3---2---3--3-----3--3---3---2---3--3--|
D|----5---3h5-------5-5--5-----5--5---5---3---5--5-----5--5---5---3---5--5-----5--5---5---3---5--5--|
A|----5--5---------------5-----5--5---6---3---5--5-----5--5---5---3---5--5-----5--5---5---3---5--5--|
E|----3------------------3-----3--3---6---1---3--3-----3--3---6---1---3--3-----3--3---6---1---3--3--|


(0:54)
e|---------------------------------------------------------------------------|
B|---------------------------------------------------------------------------|
G|-------------------------7/101010\999\7\333/5/777\3------------------------|
D|-3----------------3----------------------------------3--------------3------|
A|-1--3--55555555---1--3---5/--888-\777\5\111/3/555\1--1--3--5555555--1-3----|
E|----1--33333333------1----------------------------------1--3333333----1----|


(2:42) Solo 1
e|---------------------------------------------------------------------|
B|-------------------------------------------------------6---8p6-------|
G|------------------7-------------------------------7------7-----7-7---| x2
D|-7h8--7h8p7---5-8---8-5----------7h8--7h8p7---5-8---8----------------|
A|------------8-----------5-6p5---------------6------------------------|
E|------------------------------6--------------------------------------|

                                             |-----elevens not 1------|
e|----------------------------------------------------------------------------------------------------|
B|-------------------------------------------1111111111-99999-1111111111-13131313-15151515-18181818---|
G|-------------------------10101010-12121212----------------------------------------------------------|
D|-88888-10101010-12121212----------------------------------------------------------------------------|
A|----------------------------------------------------------------------------------------------------|
E|----------------------------------------------------------------------------------------------------|

e|-----------18---------------------------------------------------------------------------------------|
B|-15-18-18b----18b-18brp15--------------------------------------------10-----------------------------|
G|--------------------------17b--14h15p14----14---------------------------10--------------------------|
D|----------------------------------------15----15/17---10h12----8-10b-------10b--10brp8h10p8---------|
A|------------------------------------------------------------10------------------------------10------|
E|----------------------------------------------------------------------------------------------------|
  

(4:55) Solo 2
e|---------------------------------------------------------------------------------------3-----------------|
B|-------------------------------------------------------------------------------------3---6p3-------------|
G|-3--5brp3-5p3-------3---------3-------3-5brp3-5-3-3-5b-5b-3-5-5brp3-------------3-5b--------5-5bp3-5b-5b-|
D|--------------3-3h5---5-5-5-5---5-5-5-------------------------------5-5-5---3h5--------------------------|
A|--------------------------------------------------------------------------5------------------------------|
E|---------------------------------------------------------------------------------------------------------|

e|---------------------------------------------------------------------------------------------------------|
B|--------------------------8b--8brp6-8-6----------------6----6--8b-8brp6-8-8b-8brp6-8--8-8-8-6------------|
G|---------------------6-8-6-------------3-5brp3-5-3--5h7--5h7--------------------------7-7-7---5h7-5-7p5--|
D|-3-5bp3-5-3------5h7--------------------------------5--------------------------------------------------8-|
A|------------5--5-----------------------------------------------------------------------------------------|
E|---------------------------------------------------------------------------------------------------------|

e|---------------------------------------------------------------------------------------------------------|
B|---------------------------------------------------------------------------------------------------------|
G|---------------------------------------------------------------------------------------------------------|
D|-10b-10brp8-10--8--------------8-----------------8--10/12-10-8h10p8----8-------------8-10/12-10-8h10p8---|
A|------------------10-8---8-10---10-10-10-10-10-10--------------------10--10--10-10-10--10-------------10-|
E|-----------------------10--------------------------------------------------------------------------------|

e|---------------------------------------------------------------------|
B|---------------------------------------------------------------------|
G|---------------------------------------------------------------------|
D|-8-10/12-12-12p10-8-12-12-10brp8-10p8--------------8-----------------|
A|--------------------------------------10-8----8h10---10-10-10-10-----|
E|-------------------------------------------10------------------------|


************************************

| /   slide up
| \   slide down
| h   hammer-on
| p   pull-off
| ~   vibrato
| +   harmonic
| x   Mute note
| b   Bend
| pb  Pre-bend
| br  Bend release
| pbr Pre-bend release
| brb Bend release bend

************************************

            
            
Suggest correction
Creating personal tab
Creating personal tab
You can edit any tab online and save it as your Personal.

You can edit, replace or remove any tab part or add personal notes – all changes will be seen only by you.

Personal tabs can be accessed anytime from any device, even offline.
Learn more »
Give kudos to tab author, rate the tab!
1 2 3 4 5
comments
print report bad tab
3 comments total.
0 reply
TMoreau15 52 Jan 17, 2017 02:26 PM

I gave five stars. The verse and chorus are right. Solo 2 is right. What you have for solo 1 seems right but it isn't complete. There's a wah section after what you have for solo 1. The wah section seems to kick off on the high e 8th fret and plays around that area if anyone wants to noodle their way through it.

0 reply
VakiPitsi 728 Jan 18, 2017 04:09 PM

I will look at it again. Maybe I forgot to add it. Thanks for the heads up

0 reply
TMoreau15 52 Jan 18, 2017 05:20 PM

I like it way more in standard tuning than d standard. Do they actually play all their songs in D standard? Also I'm so salty because I just found these guys and they already broke up.

guest
You may want to rate the tab now too:
select rating
Wanna post a correction for this tab? Suggest correction