Oops, an error
Loading. Please wait.

Marina tab

16 views 1 this week
no commentswrite comment
1 2 3 4 5
3 more votes to show rating
add to favorites
×
Save as Personal and add changes to this tab that will be seen only by you. Learn more ›
×
You can save this tab as Personal to edit and correct it or add notes. All changes will be seen only by you. Learn more »
launch autoscroll
font size
0
reset
how to read this tab
guitar tuner
edit
Autoscroll
slow
fast
+/-
esc
set tempo
stop
The song is plucked out in eighths for the entire song. For the second chorus, you can choose to strum
as it is more intense, in which the chords would be:
D,  A,  E,  F#m
D,  A,  E,  D

Capo 3

[Intro]
e|----------------------------------------------------------------------------------|
B|-------2---------2----------2---------2---------3---------3---------3---------3---|
G|-----2---------2----------2---------2---------2---------2---------2---------2-----|
D|----------------------------------------------------------------------------------|
A|----------------------------------------------------------------------------------|
E|--2---------2---------2---------2---------2---------2---------2---------2---------|
    
e|----------------------------------------------------------------------------------|
B|-------2---------2----------2---------2---------2---------2---------2---------2---|
G|-----2---------2----------2---------2---------2---------2---------2---------2-----|
D|----------------------------------------------------------------------------------|
A|----------------------------------------------------------------------------------|
E|--0---------0---------0---------0---------1---------1---------1---------1---------|

[Verse]
e|----------------------------------------------------------------------------------|
B|-------2---------2----------2---------2---------3---------3---------3---------3---|
G|-----2---------2----------2---------2---------2---------2---------2---------2-----|
D|----------------------------------------------------------------------------------|
A|----------------------------------------------------------------------------------|
E|--2---------2---------2---------2---------2---------2---------2---------2---------|
             2 A.M.                                  Headin' home

e|----------------------------------------------------------------------------------|
B|-------2---------2----------2---------2---------2---------2---------2---------2---|
G|-----2---------2----------2---------2---------2---------2---------2---------2-----|
D|----------------------------------------------------------------------------------|
A|----------------------------------------------------------------------------------|
E|--0---------0---------0---------0---------1---------1---------1---------1---------|
              We were drivin'                         All alone

e|----------------------------------------------------------------------------------|
B|-------2---------2----------2---------2---------3---------3---------3---------3---|
G|-----2---------2----------2---------2---------2---------2---------2---------2-----|
D|----------------------------------------------------------------------------------|
A|----------------------------------------------------------------------------------|
E|--2---------2---------2---------2---------2---------2---------2---------2---------|
         The roads were fine           or             so you said            when you

e|----------------------------------------------------------------------------------|
B|-------2---------2----------2---------2---------2---------2---------2---------2---|
G|-----2---------2----------2---------2---------2---------2---------2---------2-----|
D|----------------------------------------------------------------------------------|
A|----------------------------------------------------------------------------------|
E|--0---------0---------0---------0---------1---------1---------1---------1---------|
    took the keys  from out your purse and placed    them in my hand             oh

[Pre-Chorus]
e|----------------------------------------------------------------------------------|
B|-------2---------2----------2---------2---------3---------3---------3---------3---|
G|-----2---------2----------2---------2---------2---------2---------2---------2-----|
D|----------------------------------------------------------------------------------|
A|----------------------------------------------------------------------------------|
E|--2---------2---------2---------2---------2---------2---------2---------2---------|
   we        had       just      begun                                           to

e|----------------------------------------------------------------------------------|
B|-------2---------2----------2---------2---------2---------2---------2---------2---|
G|-----2---------2----------2---------2---------2---------2---------2---------2-----|
D|----------------------------------------------------------------------------------|
A|----------------------------------------------------------------------------------|
E|--0---------0---------0---------0---------1---------1---------1---------1---------|
   find      our  - selves       in  each other                                and

e|----------------------------------------------------------------------------------|
B|-------2---------2----------2---------2---------3---------3---------3---------3---|
G|-----2---------2----------2---------2---------2---------2---------2---------2-----|
D|----------------------------------------------------------------------------------|
A|----------------------------------------------------------------------------------|
E|--2---------2---------2---------2---------2---------2---------2---------2---------|
   we        were      far       too       young                                 to

e|----------------------------------------------------------------------------------|
B|-------2---------2----------2---------2---------2---------2---------2---------2---|
G|-----2---------2----------2---------2---------2---------2---------2---------2-----|
D|----------------------------------------------------------------------------------|
A|----------------------------------------------------------------------------------|
E|--0---------0---------0---------0---------1---------1---------1---------1---------|
   lose                          one another            

[Break]
e|----------------------------------------------------------------------------------|
B|-------2---------2----------2---------2---------3---------3---------3---------3---|
G|-----2---------2----------2---------2---------2---------2---------2---------2-----|
D|----------------------------------------------------------------------------------|
A|----------------------------------------------------------------------------------|
E|--2---------2---------2---------2---------2---------2---------2---------2---------|

e|----------------------------------------------------------------------------------|
B|-------2---------2----------2---------2---------2---------2---------2---------2---|
G|-----2---------2----------2---------2---------2---------2---------2---------2-----|
D|----------------------------------------------------------------------------------|
A|----------------------------------------------------------------------------------|
E|--0---------0---------0---------0---------1---------1---------1---------1---------|

[Verse]
e|----------------------------------------------------------------------------------|
B|-------2---------2----------2---------2---------3---------3---------3---------3---|
G|-----2---------2----------2---------2---------2---------2---------2---------2-----|
D|----------------------------------------------------------------------------------|
A|----------------------------------------------------------------------------------|
E|--2---------2---------2---------2---------2---------2---------2---------2---------|
           My eyes grew dim          my        head was   slow          

e|---------------------------------------------PM-----------------------------------|
B|-------2---------2----------2---------2------PM-----------------------------------|
G|-----2---------2----------2---------2--------PM-----------------------------------|
D|---------------------------------------------PM-----------------------------------|
A|---------------------------------------------PM-----------------------------------|
E|--0---------0---------0---------0--------1---PM-----------------------------------|
       The   car was swervin'         but           I didn't know                   

e|----------------------------------------------------------------------------------|
B|-------2---------2----------2---------2---------3---------3---------3---------3---|
G|-----2---------2----------2---------2---------2---------2---------2---------2-----|
D|----------------------------------------------------------------------------------|
A|----------------------------------------------------------------------------------|
E|--2---------2---------2---------2---------2---------2---------2---------2---------|
        We   hit the   corner        and we      slid on the sand              your

e|----------------------------------------------------------------------------------|
B|-------2---------2----------2---------2---------2---------2---------2---------2---|
G|-----2---------2----------2---------2---------2---------2---------2---------2-----|
D|----------------------------------------------------------------------------------|
A|----------------------------------------------------------------------------------|
E|--0---------0---------0---------0---------1---------1---------1---------1---------|
   face was white your eyes were wide you reached out    for my hand
             
[Chorus]
e|----------------------------------------------------------------------------------|
B|-------3---------3----------3---------3---------2---------2---------2---------2---|
G|-----2---------2----------2---------2---------2---------2---------2---------2-----|
D|---0---------0----------0---------0-----------------------------------------------|
A|-------------------------------------------0---------0---------0---------0--------|
E|----------------------------------------------------------------------------------|
  Mari   -    na         are       you there?                             Can you

e|----------------------------------------------------------------------------------|
B|-------0---------0----------0---------0---------2---------2---------2---------2---|
G|-----1---------1----------1---------1---------2---------2---------2---------2-----|
D|----------------------------------------------------------------------------------|
A|----------------------------------------------------------------------------------|
E|--0---------0---------0---------0---------2---------2---------2---------2---------|
   hear                all    that I       say?                           By

e|----------------------------------------------------------------------------------|
B|-------3---------3----------3---------3---------2---------2---------2---------2---|
G|-----2---------2----------2---------2---------2---------2---------2---------2-----|
D|---0---------0----------0---------0-----------------------------------------------|
A|-------------------------------------------0---------0---------0---------0--------|
E|----------------------------------------------------------------------------------|
   God         it         isn't           fair                             I

e|----------------------------------------------------------------------------------|
B|-------0---------0----------0---------0---------3---------3---------3---------3---|
G|-----1---------1----------1---------1---------2---------2---------2---------2-----|
D|--------------------------------------------0---------0---------0---------0-------|
A|----------------------------------------------------------------------------------|
E|--0---------0---------0---------0-------------------------------------------------|
   wish      that    you took me  in    -   stead          you took me      in - 

e|----------------------------------------------------------------------------------|
B|-------2---------2----------2---------2---------3---------3---------3---------3---|
G|-----2---------2----------2---------2---------2---------2---------2---------2-----|
D|----------------------------------------------------------------------------------|
A|----------------------------------------------------------------------------------|
E|--2---------2---------2---------2---------2---------2---------2---------2---------|
      -stead     

e|----------------------------------------------------------------------------------|
B|-------2---------2----------2---------2---------2---------2---------2---------2---|
G|-----2---------2----------2---------2---------2---------2---------2---------2-----|
D|----------------------------------------------------------------------------------|
A|----------------------------------------------------------------------------------|
E|--0---------0---------0---------0---------1---------1---------1---------1---------|

[Bridge/Vocalize]
e|----------------------------------------------------------------------------------|
B|-------2---------2----------2---------2---------3---------3---------3---------3---|
G|-----2---------2----------2---------2---------2---------2---------2---------2-----|
D|----------------------------------------------------------------------------------|
A|----------------------------------------------------------------------------------|
E|--2---------2---------2---------2---------2---------2---------2---------2---------|

e|----------------------------------------------------------------------------------|
B|-------2---------2----------2---------2---------2---------2---------2---------2---|
G|-----2---------2----------2---------2---------2---------2---------2---------2-----|
D|----------------------------------------------------------------------------------|
A|----------------------------------------------------------------------------------|
E|--0---------0---------0---------0---------1---------1---------1---------1---------|

e|----------------------------------------------------------------------------------|
B|-------2---------2----------2---------2---------3---------3---------3---------3---|
G|-----2---------2----------2---------2---------2---------2---------2---------2-----|
D|----------------------------------------------------------------------------------|
A|----------------------------------------------------------------------------------|
E|--2---------2---------2---------2---------2---------2---------2---------2---------|

e|----------------------------------------------------------------------------------|
B|-------2---------2----------2---------2---------2---------2---------2---------2---|
G|-----2---------2----------2---------2---------2---------2---------2---------2-----|
D|----------------------------------------------------------------------------------|
A|----------------------------------------------------------------------------------|
E|--0---------0---------0---------0---------1---------1---------1---------1---------|
                                                                                
[Pre-Chorus]
e|----------------------------------------------------------------------------------|
B|-------2---------2----------2---------2---------3---------3---------3---------3---|
G|-----2---------2----------2---------2---------2---------2---------2---------2-----|
D|----------------------------------------------------------------------------------|
A|----------------------------------------------------------------------------------|
E|--2---------2---------2---------2---------2---------2---------2---------2---------|
   We        had       just      be    -   gun                                 to 

e|----------------------------------------------------------------------------------|
B|-------2---------2----------2---------2---------2---------2---------2---------2---|
G|-----2---------2----------2---------2---------2---------2---------2---------2-----|
D|----------------------------------------------------------------------------------|
A|----------------------------------------------------------------------------------|
E|--0---------0---------0---------0---------1---------1---------1---------1---------|
   find      ourselves           in  each  other                                and

e|----------------------------------------------------------------------------------|
B|-------2---------2----------2---------2---------3---------3---------3---------3---|
G|-----2---------2----------2---------2---------2---------2---------2---------2-----|
D|----------------------------------------------------------------------------------|
A|----------------------------------------------------------------------------------|
E|--2---------2---------2---------2---------2---------2---------2---------2---------|
   we         were     far       too       young                                to 
     
e|----------------------------------------------------------------------------------|
B|-------2---------2----------2---------2---------2---------2---------2---------2---|
G|-----2---------2----------2---------2---------2---------2---------2---------2-----|
D|----------------------------------------------------------------------------------|
A|----------------------------------------------------------------------------------|
E|--0---------0---------0---------0---------1---------1---------1---------1---------|
   lose                          one    another

[Chorus]
e|----------------------------------------------------------------------------------|
B|-------3---------3----------3---------3---------2---------2---------2---------2---|
G|-----2---------2----------2---------2---------2---------2---------2---------2-----|
D|---0---------0----------0---------0-----------------------------------------------|
A|-------------------------------------------0---------0---------0---------0--------|
E|----------------------------------------------------------------------------------|
  Mari   -    na         are       you there?                             Can you

e|----------------------------------------------------------------------------------|
B|-------0---------0----------0---------0---------2---------2---------2---------2---|
G|-----1---------1----------1---------1---------2---------2---------2---------2-----|
D|----------------------------------------------------------------------------------|
A|----------------------------------------------------------------------------------|
E|--0---------0---------0---------0---------2---------2---------2---------2---------|
   hear                all    that I       say?                           By

e|----------------------------------------------------------------------------------|
B|-------3---------3----------3---------3---------2---------2---------2---------2---|
G|-----2---------2----------2---------2---------2---------2---------2---------2-----|
D|---0---------0----------0---------0-----------------------------------------------|
A|-------------------------------------------0---------0---------0---------0--------|
E|----------------------------------------------------------------------------------|
   God         it         isn't           fair                             I

e|----------------------------------------------------------------------------------|
B|-------0---------0----------0---------0---------3---------3---------3---------3---|
G|-----1---------1----------1---------1---------2---------2---------2---------2-----|
D|--------------------------------------------0---------0---------0---------0-------|
A|----------------------------------------------------------------------------------|
E|--0---------0---------0---------0-------------------------------------------------|
   wish      that    you took me  in    -   stead          you took me      in - 

e|--2--------------------|
B|--2--------------------|
G|--2--------------------|
D|--4--------------------|
A|--4--------------------|
E|--2--------------------|
        -stead 


************************************

| PM 
- palm muted

************************************

            
            
Suggest correction
Creating personal tab
Creating personal tab
You can edit any tab online and save it as your Personal.

You can edit, replace or remove any tab part or add personal notes – all changes will be seen only by you.

Personal tabs can be accessed anytime from any device, even offline.
Learn more »
Give kudos to tab author, rate the tab!
1 2 3 4 5
comments
print report bad tab
guest
You may want to rate the tab now too:
select rating
Wanna post a correction for this tab? Suggest correction