Oops, an error
Loading. Please wait.

Once Bitten Twice Shy tab

version 3
version 3

Whole song

Interactive

575 views 1 this week
no commentswrite comment
1 2 3 4 5
3 more votes to show rating
add to favorites
×
Save as Personal and add changes to this tab that will be seen only by you. Learn more ›
×
You can save this tab as Personal to edit and correct it or add notes. All changes will be seen only by you. Learn more »
launch autoscroll
font size
0
reset
how to read this tab
guitar tuner
backing track
0:00
0:00
edit
Autoscroll
slow
fast
+/-
esc
set tempo
stop
Author
Difficulty
Hello! This is the rhythm section for the song Once Bitten Twice Shy. Bellow
is a list of the sections played in order. It's a very easy song but the
intro can be a little tricky. I hope this is accurate! Keep rockin'!

Guitar Intro
Verse
Pre-Chours
Bridge 1
Verse
Pre-Chours
Chorus
Bridge 2
Verse
Chorus
Pre-Chours
Chorus
Outro (same thing as Chorus)


Guitar Intro

e|----------------|----------------|----------------|----------------|
B|----------------|----------------|----------------|----------------|
G|----------------|----------------|----------------|----------------|
D|5~~~7---5---7-5-|----7---5~~~7-5-|----7---8---7---|8---7---8--3--7-|
A|3~~~3-3-3---3-3-|--3-3-3-3~~~3-3-|--3-3-3-3-3-3-3-|3-3-3-3-3--3--3-|
E|----------------|----------------|----------------|----------------|
        p            p   p            p   p   p   p    p   p   

e|----------------|----------------|----------------|----------------|
B|----------------|----------------|----------------|----------------|
G|----------------|----------------|----------------|----------------|
D|5~~~7---5---7-5-|----7---5~~~7-5-|----5---5~~~5---|5~~~5---5~~~7-5-|
A|3~~~3-3-3---3-3-|--3-3-3-3~~~3-3-|----6/7-3~~~6/7-|3~~~6/7-3~~~3-3-|
E|----------------|----------------|----------------|----------------|
        p            p   p

e|----------------|----------------|----------------|----------------|
B|----------------|----------------|----------------|----------------|
G|----------------|----------------|----------------|----------------|
D|----7---8~~~7-5~|~~--7---8~~~7-5~|~~--7---5~~~7-5-|----7---8---7---|
A|--3-3-3-3~~~3-3~|~~3-3-3-3~~~3-3~|~~3-3-3-3~~~3-3-|--3-3-3-3-3-3-3-|
E|----------------|----------------|----------------|----------------|
    p   p            p   p            p   p            p   p   p   p

Verse 

e|----------------|----------------|----------------|----------------|
B|----------------|----------------|----------------|----------------|
G|----------------|----------------|----------------|----------------|
D|5-5-5-5-5-5-5-5-|5-5-5-5-5-5-5-5-|----------------|7-7-7-7-7-7-7-7-|
A|3-3-3-3-3-3-3-3-|3-3-3-3-3-3-3-3-|5-5-5-5-5-5-5-5-|5-5-5-5-5-5-5-5-|
E|----------------|----------------|3-3-3-3-3-3-3-3-|----------------|
  |----------------------------palm mute----------------------------|

e|----------------|----------------|----------------|----------------|
B|----------------|----------------|----------------|----------------|
G|----------------|----------------|----------------|----------------|
D|5-5-5-5-5-5-5-5-|5-5-5-5-5-5-5-5-|----------------|7-7-7-7-7-7-7-7-|
A|3-3-3-3-3-3-3-3-|3-3-3-3-3-3-3-3-|5-5-5-5-5-5-5-5-|5-5-5-5-5-5-5-5-|
E|----------------|----------------|3-3-3-3-3-3-3-3-|----------------|
  |----------------------------palm mute----------------------------|


Pre-Chorus

e|----------------|----------------|----------------|----------------|
B|----------------|----------------|----------------|----------------|
G|----------------|----------------|----------------|----------------|
D|----------------|----------------|8-8-8-8-8-8-8-8-|8-8-8-8-8-8-8-8-|
A|8-8-8-8-8-8-8-8-|8-8-8-8-8-8-8-8-|6-6-6-6-6-6-6-6-|6-6-6-6-6-6-6-6-|
E|6-6-6-6-6-6-6-6-|6-6-6-6-6-6-6-6-|----------------|----------------|
  |----------------------------palm mute----------------------------|

e|----------------|----------------|----------------|----------------|
B|----------------|----------------|----------------|----------------|
G|----------------|----------------|----------------|----------------|
D|----------------|----------------|8-8-8-8-8-8-8-8-|8-8-8-8-8-8-8-8-|
A|8-8-8-8-8-8-8-8-|8-8-8-8-8-8-8-8-|6-6-6-6-6-6-6-6-|6-6-6-6-6-6-6-8-|
E|6-6-6-6-6-6-6-6-|6-6-6-6-6-6-6-6-|----------------|----------------|
  |----------------------------palm mute----------------------------|

Bridge 1

e|----------------|----------------|----------------|----------------|
B|----------------|----------------|----------------|----------------|
G|----------------|----------------|5~~~~~~~~~~~~~~~|~~~~~~~~~~~~~~~~|
D|5~~~~~~~~~~~~~~~|~~~~~~~~~~~~~~~~|5~~~~~~~~~~~~~~~|~~~~~~~~~~~~~~~~|
A|3~~~~~~~~~~~~~~~|~~~~~~~~~~~~~~~~|3~~~~~~~~~~~~~~~|~~~~~~~~~~~~~~~~|
E|----------------|----------------|----------------|----------------|

e|----------------|----------------|----------------|----------------|
B|----------------|----------------|----------------|----------------|
G|----------------|----------------|----------------|----------------|
D|5~~~7---8---7-5-|----5---7~~~7-5-|----7---8---7---|8---7---8--3--7-|
A|3~~~3-3-3---3-3-|--3-3-3-3~~~3-3-|--3-3-3-3-3-3-3-|3-3-3-3-3--3--3-|
E|----------------|----------------|----------------|----------------|
        p            p   p            p   p   p   p    p   p


Verse

e|----------------|----------------|----------------|----------------|
B|----------------|----------------|----------------|----------------|
G|----------------|----------------|----------------|----------------|
D|5-5-5-5-5-5-5-5-|5-5-5-5-5-5-5-5-|----------------|7-7-7-7-7-7-7-7-|
A|3-3-3-3-3-3-3-3-|3-3-3-3-3-3-3-3-|5-5-5-5-5-5-5-5-|5-5-5-5-5-5-5-5-|
E|----------------|----------------|3-3-3-3-3-3-3-3-|----------------|
  |----------------------------palm mute----------------------------|

e|----------------|----------------|----------------|----------------|
B|----------------|----------------|----------------|----------------|
G|----------------|----------------|----------------|----------------|
D|5-5-5-5-5-5-5-5-|5-5-5-5-5-5-5-5-|----------------|7-7-7-7-7-7-7-7-|
A|3-3-3-3-3-3-3-3-|3-3-3-3-3-3-3-3-|5-5-5-5-5-5-5-5-|5-5-5-5-5-5-5-5-|
E|----------------|----------------|3-3-3-3-3-3-3-3-|----------------|
  |----------------------------palm mute----------------------------|

e|----------------|----------------|----------------|----------------|
B|----------------|----------------|----------------|----------------|
G|----------------|----------------|----------------|----------------|
D|----------------|----------------|8-8-8-8-8-8-8-8-|8-8-8-8-8-8-8-8-|
A|8-8-8-8-8-8-8-8-|8-8-8-8-8-8-8-8-|6-6-6-6-6-6-6-6-|6-6-6-6-6-6-6-6-|
E|6-6-6-6-6-6-6-6-|6-6-6-6-6-6-6-6-|----------------|----------------|
  |----------------------------palm mute----------------------------|

e|----------------|----------------|----------------|----------------|
B|----------------|----------------|----------------|----------------|
G|----------------|----------------|----------------|----------------|
D|----------------|----------------|8-8-8-8-8-8-8-8-|8-8-8-8-8-8-8-8-|
A|8-8-8-8-8-8-8-8-|8-8-8-8-8-8-8-8-|6-6-6-6-6-6-6-6-|6-6-6-6-6-6-6-8-|
E|6-6-6-6-6-6-6-6-|6-6-6-6-6-6-6-6-|----------------|----------------|
  |----------------------------palm mute----------------------------|


Chorus

e|----------------|----------------|----------------|----------------|
B|----------------|----------------|----------------|----------------|
G|----------------|----------------|----------------|----------------|
D|5-5-5-5-5-5-5-5-|5-5-5-5-5-5-5-5-|----------------|----------------|
A|3-3-3-3-3-3-3-3-|3-3-3-3-3-3-3-3-|3-3-3-3-3-3-3-3-|3-3-3-3-3-3-3-3-|
E|----------------|----------------|1-1-1-1-1-1-1-1-|1-1-1-1-1-1-1-1-|

e|----------------|----------------|----------------|----------------|
B|----------------|----------------|----------------|----------------|
G|----------------|----------------|----------------|----------------|
D|5-5-5-5-5-5-5-5-|5-5-5-5-5-5-5-5-|----------------|----------------|
A|3-3-3-3-3-3-3-3-|3-3-3-3-3-3-3-3-|3-3-3-3-3-3-3-3-|3-3-3-3-3-3-3-3-|
E|----------------|----------------|1-1-1-1-1-1-1-1-|1-1-1-1-1-1-1-1-|



Bridge 2

e|----------------|----------------|----------------|----------------|
B|----------------|----------------|----------------|----------------|
G|----------------|----------------|----------------|----------------|
D|5~~~~~~~~~~~~~~~|~~~~~~~~~~~~~~~~|5~~~~~~~~~~~~~~~|~~~~~~~~~~~~~~~~|
A|5~~~~~~~~~~~~~~~|~~~~~~~~~~~~~~~~|5~~~~~~~~~~~~~~~|~~~~~~~~~~~~~~~~|
E|3~~~~~~~~~~~~~~~|~~~~~~~~~~~~~~~~|3~~~~~~~~~~~~~~~|~~~~~~~~~~~~~~~~|


Outro

e|----------------|----------------|----------------|----------------|
B|----------------|----------------|----------------|----------------|
G|----------------|----------------|----------------|----------------|
D|5-5-5-5-5-5-5-5-|5-5-5-5-5-5-5-5-|----------------|----------------|
A|3-3-3-3-3-3-3-3-|3-3-3-3-3-3-3-3-|3-3-3-3-3-3-3-3-|3-3-3-3-3-3-3-3-|
E|----------------|----------------|1-1-1-1-1-1-1-1-|1-1-1-1-1-1-1-1-|




Legend

/  Slide up
p  Palm Mute (instead of pull off for space reasons)
~  Sustain note

            
            
Suggest correction
Creating personal tab
Creating personal tab
You can edit any tab online and save it as your Personal.

You can edit, replace or remove any tab part or add personal notes – all changes will be seen only by you.

Personal tabs can be accessed anytime from any device, even offline.
Learn more »
Give kudos to tab author, rate the tab!
1 2 3 4 5
comments
print report bad tab
guest
You may want to rate the tab now too:
select rating
Wanna post a correction for this tab? Suggest correction