Oops, an error
Loading. Please wait.

Let The Evil Go East bass

version 1
version 1

Whole song

Interactive

878 views 1 this week
no commentswrite comment
1 2 3 4 5
3 more votes to show rating
add to favorites
×
Save as Personal and add changes to this tab that will be seen only by you. Learn more ›
×
You can save this tab as Personal to edit and correct it or add notes. All changes will be seen only by you. Learn more »
launch autoscroll
font size
0
reset
guitar tuner
edit
Autoscroll
slow
fast
+/-
esc
set tempo
stop
-----------------------------------------------------------------------------
LET THE EVIL GO EAST - Greeley Estates
-----------------------------------------------------------------------------
Tabbed By: Thomassoon

Cheers to Shinsen88 for a great guitar tab, which helped alot

Tuning: CGCF (Drop C)


Intro (0:00-0:19)
F|----------------------------------------------------------------------|
C|----------------------------------------------------------------------| x2
G|----------------------------------------------------------------------|
C|--8-(X16)-5-(X16)-0-(X16)-0000000000000000--0-(X16)-0000000000000000--|
                            ................          ................

VERSE 1 (0:20-0:29)
F|--------------------------------------------------------------------|
C|--------------------------------------------------------------------|
G|-----------------------------------4-4-4-4-4-4-4-4-4-4-4-4-4-4-4-4--| x2
C|--0-0-0-0-0--0-0-0-0-0--0-0-0-0-0-----------------------------------|
    . . . . .  . . . . .  . . . . .

VERSE 1, contd. (0:30-0:39)
F|--------------------------------------------------------------------|
C|--------------------------------------------------------------------|
G|-----------------------------------4-4-4-4-4-4-4-4-4-4-4-4-4-4-4-4--| x2
C|--0-0-0-0-0--0-0-0-0-0--0-0-0-0-0-----------------------------------|
    . . . . .  . . . . .  . . . . .

INTRO x2 (0:40-0:58)

(0:59-1:01)
F|------|
C|------|
G|------|
C|--0~--|

VERSE 2(1:02-1:15)
F|--------------------------------------------------------------------|
C|--------------------------------------------------------------------|
G|--------------------------------------------------------------------| x4 
C|--5-8-5-4--0-0--0-0-0--0-0--0-0-0--5-0-5-4--0-0--0-0-0--0-0--0-0-0--|
             . .  . . .  . .  . . .           . .  . . .  . .  . . .

Rest(1:16-1:18)

VERSE 1 (1:19-1:38)

REST (1:39-1:40)

INTRO x4 (1:41-2:17)

VERSE 3 (2:18-2:36)
F|----------|
C|----------|
G|----------| x2
C|--2~--0~--|

VERSE 3, contd. (2:37-3:06)
F|--------------------------------------------------------------------|
C|--------------------------------------------------------------------|
G|--------------------------------------------------------------------| x6
C|--2-2-2-2-2--2-2-2-2-2--2-2-2-2-2--0-0-0-0-0--0-0-0-0-0--0-0-0-0-0--|
    . . . . .  . . . . .  . . . . .  . . . . .  . . . . .  . . . . .

End With (3:07-3:21)
F|-----|
C|-----|
G|-----|
C|--2--|
    .

            
            
Suggest correction
Creating personal tab
Creating personal tab
You can edit any tab online and save it as your Personal.

You can edit, replace or remove any tab part or add personal notes – all changes will be seen only by you.

Personal tabs can be accessed anytime from any device, even offline.
Learn more »
Give kudos to tab author, rate the tab!
1 2 3 4 5
comments
print report bad tab
guest
You may want to rate the tab now too:
select rating
Wanna post a correction for this tab? Suggest correction