Oops, an error
Loading. Please wait.
We have an official 21 Guns tab made by UG professional guitarists. Check out the tab »
×

21 Guns Acoustic chords

version 9
version 9

Whole song

Video

29,751 views 666 this week
5 commentsread comments
1 2 3 4 5
x 99
add to favorites
×
Save as Personal and add changes to this tab that will be seen only by you. Learn more ›
×
You can save this tab as Personal to edit and correct it or add notes. All changes will be seen only by you. Learn more »
launch autoscroll
font size
0
reset
transpose
0
reset
display chords
guitar tuner
backing track
0:00
0:00
edit
Autoscroll
slow
fast
+/-
esc
set tempo
stop
About this tab version
It's a mixture between Tabs and Chords that hasn't been submit like this yet.
Strumming Is this strumming pattern correct? Yes No
verse 1, 2, 3 and 4 82 bpm
1
 
&
 
2
 
&
 
3
 
&
 
4
 
&
 
5
 
&
 
6
 
&
 
7
 
&
 
8
 
&
 
Listen
Capo 5th


[Intro]

E|--------0-----|
B|--1--------0--|
G|-----2--------|
D|--------------|
A|--------------|
E|--------------|(x2)


[Verse 1]

Am     F                C        G
Do you know what's worth fighting for
Am        F        C      G
When it's not worth dying for
Am      F        C      G
Does it take your breath away
F                         G
And you feel yourself suffocating
Am       F         C       G
Does the pain weigh out the pride
Am        F       C        G
And you look for a place to hide?
Am      F             C      G
Did someone break your heart inside
             F
You're in ruins


[Instrumental]

G (One strum)


[Chorus]

C    G    Am
One, 21 guns
G             F
Lay down your arms
C           G
Give up the fight
C    G    Am
One, 21 guns
G             F   C        G
Throw up your arms into the sky,
     F          C         G
You and I


[Verse 2]

Am          F     C          G
When you're at the end of the road
Am      F       C        G
And you lost all sense of control
Am        F           C           G
And your thoughts have taken their toll
F                                       G
When your mind breaks the spirit of your soul
Am   F             C      G
Your faith walks on broken glass
Am      F        C       G
And the hangover doesn't pass
Am        F   C        G
Nothing's ever built to last
           F
You're in ruins.


[Instrumental]

G (One strum)


[Chorus]

C    G    Am
One, 21 guns
G             F
Lay down your arms
C           G
Give up the fight
C    G    Am
One, 21 guns
G             F   C        G
Throw up your arms into the sky,
      F          C         G
You and I


[Verse 3]

Am      F     C            G
Did you try to live on your own
Am       F               C        E
When you burned down the house and home
Am      F         C           E
Did you stand too close to the fire
Fm                          G
Like a liar looking for forgiveness from a stone


[Solo]

  C       G          Am       G       F        C        G
E|--0--------0-----|-----------------|-----------------|-----------------------|
B|-----1--3-----1--|--1-----0--1-----|-----------------|--0--0--0--0--0--1--3--|
G|-----------------|-----2--------2--|--2-----0--------|-----------------------|
D|-----------------|-----------------|-----3-----2-----|-----------------------|
A|-----------------|-----------------|--------------3--|-----------------------|
E|-----------------|-----------------|-----------------|-----------------------|
   C       G          Am        G      F      C           G
E|--0--------0-----|-----------------|-----------------|--------------------7(v)--|
B|-----1--3-----1--|--1-----0--1-----|-----------------|--0--0--0--0--0--1--------|
G|-----------------|-----2--------2--|--2-----0--------|--------------------------|
D|-----------------|-----------------|-----3-----2-----|--------------------------|
A|-----------------|-----------------|--------------3--|--------------------------|
E|-----------------|-----------------|-----------------|--------------------------|

  F           C            G             Am   F  C  G
E|-----------|-----------|--------------|--------0-----|(x2)
B|-----------|-----------|--0--0--0--0--|--1--------0--|
G|--2--------|--0--------|--------------|-----2--------|
D|-----3-----|-----2-----|--------------|--------------|
A|--------3--|--------3--|--------------|--------------|
E|-----------|-----------|--------------|--------------|


[Verse 4]

Am        F       C           G
When it's time to live and let die
Am      F        C       G
And you can't get another try
Am         F         C         G
Something inside this heart has died
F
You're in ruins.


[Chorus]

C    G    Am
One, 21 guns
G             F
Lay down your arms
C           G
Give up the fight
C    G    Am
One, 21 guns
G             F   C       G
Throw up your arms into the sky
C    G    Am
One, 21 guns
G             F
Lay down your arms
C           G
Give up the fight
C    G    Am
One, 21 guns
G             F   C        G
Throw up your arms into the sky
     F          C          G
You and I

            
            
Suggest correction
Creating personal tab
Creating personal tab
You can edit any tab online and save it as your Personal.

You can edit, replace or remove any tab part or add personal notes – all changes will be seen only by you.

Personal tabs can be accessed anytime from any device, even offline.
Learn more »
comments
print report bad tab
5 comments total. Showing first comments. show 1 bad comment
0 reply
felixkarlsson7 12 Mar 30, 2015 12:02 PM

Worst correction

+2 reply
felixkarlsson7 12 Mar 30, 2015 12:02 PM

Otherwise very accurate and good tab, thanks for sharing :)

guest
You may want to rate the tab now too:
select rating
Wanna post a correction for this tab? Suggest correction