Oops, an error
Loading. Please wait.
We have an official Bang Bang tab made by UG professional guitarists. Check out the tab »
×

Bang Bang chords

version 2
version 2

Whole song

Interactive

Video

7,810 views 24 this week
5 commentsread comments
1 2 3 4 5
x 6
add to favorites
×
Save as Personal and add changes to this tab that will be seen only by you. Learn more ›
×
You can save this tab as Personal to edit and correct it or add notes. All changes will be seen only by you. Learn more »
launch autoscroll
font size
0
reset
transpose
0
reset
display chords
guitar tuner
backing track
0:00
0:00
edit
Autoscroll
slow
fast
+/-
esc
set tempo
stop
Author
Strumming
There is no strumming pattern for this song yet. and get +5 IQ
Here are the chords for Green Day's awesome new single, Bang Bang! It may not be
flawless, but let me know if you have any corrections and I'll be sure to check it out. Enjoy!

(This is definitely not the first video to surface of an execution. ...of men, they
claimed responsibility for the executions. Described as severely mentally disturbed. Videos
show another hostage executed by the terrorist group. Deserve to be annihilated)


[Intro]

Am F Dm
Am F C Em
(x2)

G D A
D D A
(x2)


[Verse 1]

G Dm Am            Dm Dm Am
     I get my kicks and I want to start a rager
G         Dm             Am
I want to dance like I'm on the video
G Dm Am           Dm Dm Am
     I got a fever for violent behavior
G            Dm             Am
I'm sweating bullets like a modern Romeo


[Chorus]

Am
(Bang bang!)
F
(Gimme fame!)
Dm
Shoot me up to entertain
Am     F    C                Dm
I am a semi-automatic lonely boy
Am
(You're dead!)
F
(I'm well fed!)
Dm
Give me death or give me head
Am             F          C              Dm
Daddy's little psycho and mommy's little soldier

Am F Dm
Am F C Em
(x2)


[Verse 2]

G Dm Am       Dm Dm Am
     I testify like a lullaby of memories
G            Dm
Broadcasting live
         Am
And it's on my radio
G Dm Am                 Dm Dm Am
     I got my photobomb, I got my Vietnam
G        Dm            Am
I love a lie just like anybody else


[Chorus]

Am
(Bang bang!)
F
(Gimme fame!)
Dm
Shoot me up to entertain
Am     F    C                Dm
I am a semi-automatic lonely boy
Am
(You're dead!)
F
(I'm well fed!)
Dm
Give me death or give me head
Am           F                C               Dm
Broadcasting from my room and playing with my toys

A                F#m     D
I want to be a celebrity martyr
A                     F#m         D
The leading man in my own private drama
A
Hurrah! Hurrah!
    F#m         D
The hero of the hour
Am             C          F              Dm
Daddy's little psycho and mommy's little soldier


[Bridge]

e|-----------------------------------------------------|
B|-----------------------------------------------------|
G|-9--9-9-9--11--13--13-13-13--14--17--17-17-17-16-14~-|
D|-----------------------------------------------------|
A|-7--7-7-7--9---11--11-11-11--12--15--15-15-15-14-12~-|
E|-----------------------------------------------------|

e|-----------------------------------------------------|
B|-----------------------------------------------------|
G|-17--17-17-17--16--14--14-14-14--12--9-10-9-7--4--7--|
D|-----------------------------------------------------|
A|-15--15-15-15--14--12--12-12-12--10--7-8--7-5--2--5--|
E|-----------------------------------------------------|

(x2)
E (strum and let it ring)
I want to be like the soldiers on the screen
                F Bb
It's my private holy war
E (strum and let it ring)
Oh baby baby this is viva vendetta
                         F         Bb
For this is love or it's World War Zero!

Am F Dm
Am F C Em

Am F Dm
Am F C (cut here for the drum solo!)


[Chorus]

A                F#m     D
I want to be a celebrity martyr
A                     F#m         D
The leading man in my own private drama
A
Hurrah! Hurrah!
    F#m         D
The hero of the hour
Am             C          F              Dm
Daddy's little psycho and mommy's little soldier

A                F#m     D
I want to be a celebrity martyr
A                     F#m         D
The leading man in my own private drama
A
Hurrah! Hurrah!
    F#m         D
The hero of the hour
Am             C          F              Dm
Daddy's little psycho and mommy's little soldier



************************************

| ~  Vibrato

************************************

            
            
Suggest correction
Creating personal tab
Creating personal tab
You can edit any tab online and save it as your Personal.

You can edit, replace or remove any tab part or add personal notes – all changes will be seen only by you.

Personal tabs can be accessed anytime from any device, even offline.
Learn more »
comments
print report bad tab
5 comments total. Showing first comments.
0 reply
MyDayGreenDay 733 Aug 20, 2016 09:10 AM

great tab! think the solo goes something like this tho

e|------------------------------------------------------------------|
B|------------------------------------------------------------------|
G|-9--9-9-9--10--13--13-13-13--14--16--16-16-16-14-13--13-13--13-13-|
D|------------------------------------------------------------------|
A|-7--7-7-7--8---11--11-11-11--12--14--14-14-14-12-11--11-11--11-11-|
E|------------------------------------------------------------------|

e|-----------------------------------------------------|
B|-----------------------------------------------------|
G|-17--17-17-17--16--14--14-14-14--9-10-9-7-4-5-4-2----|
D|-----------------------------------------------------|
A|-15--15-15-15--14--12--12-12-12--7-8--7-5-2-3-2-0----|
E|-----------------------------------------------------|

-1 reply
LarryJoe10 25 Aug 22, 2016 08:26 AM

i think that where it says
Am F C Dm
Daddy's little psycho and mommy's little soldier

it should be
Am C F Dm
Daddy's little psycho and mommy's little soldier

also when it says "I am a semi-automatic lonely boy" the same thing

0 reply
AlbertCamus 20 Sep 05, 2016 08:04 PM

F#m might just be F#maj...not positive though, it just feels right while singing along on an acoustic. But great tab man! Thank you thank you, well done.

guest
You may want to rate the tab now too:
select rating
Wanna post a correction for this tab? Suggest correction