Oops, an error
Loading. Please wait.

Dry Ice bass

version 3
version 3

Whole song

  • The entire tab is written in order.. Tab was based... Show more

Interactive

28 views 1 this week
no commentswrite comment
1 2 3 4 5
3 more votes to show rating
add to favorites
×
Save as Personal and add changes to this tab that will be seen only by you. Learn more ›
×
You can save this tab as Personal to edit and correct it or add notes. All changes will be seen only by you. Learn more »
launch autoscroll
font size
0
reset
guitar tuner
edit
Autoscroll
slow
fast
+/-
esc
set tempo
stop
Author
Difficulty
Album: 1,039 / Smoothed Out Slappy Hours (1991)
Song: Dry Ice
Tuning: Standard (EADG)
Band: Green Day
Part of song: whole song


Intro
G|---------------------------------|---------------------------------|
D|---------------------------------|---------------------------------|
A|---------------------------------|---------------------------------|
E|-5~--------------------------5---|/17------------------------------|

G|---------------------------------|---------------------------------|
D|---------------------------------|---------------------------------|
A|---------------------------------|---------------------------------|
E|-5~------------------------------|-5---5-5-5-5-5-5-5-5-5-5-5-5-5---|

1st Verse: (Last night I had a dream...)
G|---------------------------------|---------------------------------|  
D|---------------------------------|---------------------------------|  
A|---------------4---4-4-4-4-4-4-4-|-5---5-5-5-5-5-------------------|   
E|-5---5-5-5-5-5-------------------|---------------5---5-5-5-5-5-5-5-|  
                                                                        X2
G|---------------------------------|---------------------------------|  
D|---------------------------------|---------------------------------|  
A|---------------4---4-4-4-4-4-4-4-|-5---5-5-5-5-5-7---7-7-7-7-7-7-7-|  
E|-5---5-5-5-5-5-------------------|---------------------------------|  


Pre Chorus: (Oh, I love her...)
G|---------------------------------|---------------------------------|    
D|---------------------------------|---------------------------------|    
A|-5---5-5-5-5-5-------------------|-5---5-5-5-5-5-------------------|   
E|---------------5---5-5-5-5-5-5-5-|---------------5---5-5-5-5-5-5-5-|  
  
G|---------------------------------|---------------------------------| 
D|---------------------------------|---------------------------------|  
A|-5---5-5-5-5-5-------------------|-4-5-5-5-5-5-5-------------------|  
E|---------------5---5-5-5-5-5-5-5-|---------------5---5-5-5-5-5-5-5-|  

Instrumental (Between Pre Chorus and 2nd Verse)
G|---------------------------------|---------------------------------|  
D|---------------------------------|---------------------------------| X2
A|---------------4---4-4-4-4-4-4-4-|-5---5-5-5-5-5-------------------|   
E|-5---5-5-5-5-5-------------------|---------------5---5-5-5-5-5-5-5-|

2nd Verse: (I'll send a letter to that girl...)
G|---------------------------------|---------------------------------|  
D|---------------------------------|---------------------------------|  
A|---------------4---4-4-4-4-4-4-4-|-5---5-5-5-5-5-------------------|   
E|-5---5-5-5-5-5-------------------|---------------5---5-5-5-5-5-5-5-|  
                                                                        X2
G|---------------------------------|---------------------------------|  
D|---------------------------------|---------------------------------|  
A|---------------4---4-4-4-4-4-4-4-|-5---5-5-5-5-5-7---7-7-7-7-7-7-7-|  
E|-5---5-5-5-5-5-------------------|---------------------------------|  

Pre Chorus: (Oh, I love her...)
G|---------------------------------|---------------------------------|    
D|---------------------------------|---------------------------------|    
A|-5---5-5-5-5-5-------------------|-5---5-5-5-5-5-------------------|   
E|---------------5---5-5-5-5-5-5-5-|---------------5---5-5-5-5-5-5-5-|  
                                                                        X2
G|---------------------------------|---------------------------------| 
D|---------------------------------|---------------------------------|  
A|-5---5-5-5-5-5-------------------|-4-5-5-5-5-5-5-------------------|  
E|---------------5---5-5-5-5-5-5-5-|---------------5---5-5-5-5-5-5-5-|  

Chorus and Guitar Solo: (Come ease the pain that's in my heart)
G|---------------------------------|---------------------------------|  
D|---------------------------------|---------------------------------|  
A|---------------4---4-4-4-4-4-4-4-|-5---5-5-5-5-5-5---5-5-5-5-5-5-5-|   
E|-5---5-5-5-5-5-------------------|---------------------------------|  
                                                                        X4
G|---------------------------------|---------------------------------|  
D|---------------------------------|---------------------------------|  
A|---------------------------------|-5---5-5-5-5-5-7---7-7-7-7-7-7-7-|  
E|-5---5-5-5-5-5-2---2-2-2-2-2-2-2-|---------------------------------| 

Fill
G|---------------------------------|---------------------------------|
D|---------------------------------|---------------------------------|
A|---------------------------------|---------------------------------|
E|-5~--------------------------5---|/17------------------------------|

G|---------------------------------|---------------------------------|
D|---------------------------------|---------------------------------|
A|---------------------------------|---------------------------------|
E|-5~------------------------------|-5---5-5-5-5-5-5-5-5-5-5-5-5-5---|

1st Verse Again: (I'll send a letter to that girl...)
G|---------------------------------|---------------------------------|  
D|---------------------------------|---------------------------------|  
A|---------------4---4-4-4-4-4-4-4-|-5---5-5-5-5-5-------------------|   
E|-5---5-5-5-5-5-------------------|---------------5---5-5-5-5-5-5-5-|  
                                                                        X2
G|---------------------------------|---------------------------------|  
D|---------------------------------|---------------------------------|  
A|---------------4---4-4-4-4-4-4-4-|-5---5-5-5-5-5-7---7-7-7-7-7-7-7-|  
E|-5---5-5-5-5-5-------------------|---------------------------------|  

Pre Chorus: (Oh, I love her...)
G|---------------------------------|---------------------------------|    
D|---------------------------------|---------------------------------|    
A|-5---5-5-5-5-5-------------------|-5---5-5-5-5-5-------------------|   
E|---------------5---5-5-5-5-5-5-5-|---------------5---5-5-5-5-5-5-5-|  
                                                                        X2
G|---------------------------------|---------------------------------| 
D|---------------------------------|---------------------------------|  
A|-5---5-5-5-5-5-------------------|-4-5-5-5-5-5-5-------------------|  
E|---------------5---5-5-5-5-5-5-5-|---------------5---5-5-5-5-5-5-5-|  

Chorus: (Come ease the pain that's in my heart)
G|---------------------------------|---------------------------------|  
D|---------------------------------|---------------------------------|  
A|---------------4---4-4-4-4-4-4-4-|-5---5-5-5-5-5-5---5-5-5-5-5-5-5-|   
E|-5---5-5-5-5-5-------------------|---------------------------------|  
                                                                        X2
G|---------------------------------|---------------------------------|  
D|---------------------------------|---------------------------------|  
A|---------------------------------|-5---5-5-5-5-5-7---7-7-7-7-7-7-7~|  
E|-5---5-5-5-5-5-2---2-2-2-2-2-2-2-|---------------------------------| 

       LEGEND
|--------------------|
| ~ = Let Note Ring  |
| / = Slide Up       |   ENJOY - Cyto
|--------------------|   https://www.youtube.com/channel/UCJctdNHjFBgMhERwEwKu4vg

            
            
Suggest correction
Creating personal tab
Creating personal tab
You can edit any tab online and save it as your Personal.

You can edit, replace or remove any tab part or add personal notes – all changes will be seen only by you.

Personal tabs can be accessed anytime from any device, even offline.
Learn more »
Give kudos to tab author, rate the tab!
1 2 3 4 5
comments
print report bad tab
guest
You may want to rate the tab now too:
select rating
Wanna post a correction for this tab? Suggest correction