Oops, an error
Loading. Please wait.
We have an official Hitchin A Ride tab made by UG professional guitarists. Check out the tab »
×
2,622 views 3 this week
4 commentsread comments
1 2 3 4 5
x 6
add to favorites
×
Save as Personal and add changes to this tab that will be seen only by you. Learn more ›
×
You can save this tab as Personal to edit and correct it or add notes. All changes will be seen only by you. Learn more »
launch autoscroll
font size
0
reset
how to read this tab
guitar tuner
backing track
0:00
0:00
edit
Autoscroll
slow
fast
+/-
esc
set tempo
stop
Author
Tabbers playing skills
intermediate ++
                                 HITCHIN' A RIDE
                            As recorded by Green Day
                          (From the 1997 Album NIMROD)
                               Donkey Fly

As people who have seen some of my other tabs i like to use PTE to get it just right so
ive used it here. Enjoy

Words by Billie Joe

Music by Green Day

           B                    D                    G                   F#
      x 2 4 4 x x          x 5 7 7 x x          3 5 5 x x x          2 4 4 x x x

          A5                   G#5
      x 0 2 2 x x          4 6 6 x x x

 Intro
  freH.=HQ=203 Q=162       H=H    Q=Q=162     Q=203
 4/4
  Gtr V
                  ~~                       ~~~~~~~~~~
|--------------|-----------|------------------|-------------||
|--------------|-----------|-8----------------|-------------||
|--------8h-9--|-11--------|---11-9-8tr9------|-------------||
|-9h-10--------|-----------|--------------10--|-(10)--------||
|--------------|-----------|------------------|-------------||
|--------------|-----------|------------------|-------------||


   Verse
    Fast Rock Q=162(8=s8)
    B5      A5        G#5     G5
    Gtr I
    PM----------------------------|
                                       9x
||------------------|------------------||
||o-----------------|-----------------o||
||------------------|------------------||
||------------------|------------------||
||o-9--9-x\-7--7-x\-|-6--6-x\-5-5-5/--o||
||--7--7-x\-5--5-x\-|-4--4-x\-3-3-3/---||


 Pre-Chorus
  B5        A5          G#5         G5               B5      A5
                                                     Gtrs I, II
  PM---------------|
|---------------------|--------------------------||------------------|
|---------------------|--------------------------||o-----------------|
|---------------------|--------------------------||------------------|
|----(9)-x\----(7)-x\-|-6-6-6-6-6-6-5-5-5-5-5-5/-||--9--9-x\-7--7-x\-|
|-9---9--x\-7---7--x\-|-6-6-6-6-6-6-5-5-5-5-5-5/-||o-9--9-x\-7--7-x\-|
|-7---7--x\-5---5--x\-|-4-4-4-4-4-4-3-3-3-3-3-3/-||--7--7-x\-5--5-x\-|


  G#5     G5          B5      A5        G#5
                   3x
|------------------||-----------------|-----------||
|-----------------o||-----------------|-----------||
|------------------||-----------------|-----------||
|-6--6-x\-5-5-5/---||-9--9-x\-7--7-x\-|-6--6------||
|-6--6-x\-5-5-5/--o||-9--9-x\-7--7-x\-|-6--6------||
|-4--4-x\-3-3-3/---||-7--7-x\-5--5-x\-|-4--4------||


   Verse
    B5          A5            G#5         G5
    Gtr I
     PM-------------------------------------------|
                                                         8x
||--------------------------|----------------------------||
||o-------------------------|---------------------------o||
||--------------------------|----------------------------||
||--(9)--(9)-x\-(7)--(7)-x\-|-(6)--(6)-x\-(5)-(5)-(5)/---||
||o--9----9--x\--7----7--x\-|--6----6--x\--5---5---5/---o||
||---7----7--x\--5----5--x\-|--4----4--x\--3---3---3/----||


 Pre-Chorus
  B5          A5            G#5         G5               B5      A5
                                                         Gtrs I, II
   PM------------------|
|-------------------------|--------------------------||------------------|
|-------------------------|--------------------------||o-----------------|
|-------------------------|--------------------------||------------------|
|-(9)--(9)-x\-(7)--(7)-x\-|-6-6-6-6-6-6-5-5-5-5-5-5/-||--9--9-x\-7--7-x\-|
|--9----9--x\--7----7--x\-|-6-6-6-6-6-6-5-5-5-5-5-5/-||o-9--9-x\-7--7-x\-|
|--7----7--x\--5----5--x\-|-4-4-4-4-4-4-3-3-3-3-3-3/-||--7--7-x\-5--5-x\-|


                     Chorus
  G#5     G5          B5     A5        G#5     G5
                   3x
|------------------||----------------|-----------------|
|-----------------o||----------------|-----------------|
|------------------||----------------|-----------------|
|-6--6-x\-5-5-5/---||-9--9-9-7-7-7-7-|-6-6-6-6-5-5-5-5-|
|-6--6-x\-5-5-5/--o||-9--9-9-7-7-7-7-|-6-6-6-6-5-5-5-5-|
|-4--4-x\-3-3-3/---||-7--7-7-5-5-5-5-|-4-4-4-4-3-3-3-3-|


  E5                F#5               B5     A5
|-----------------|-----------------|---------------|
|-----------------|-----------------|---------------|
|-----------------|-----------------|-4--4-4-2--2-2-|
|-2--2-2-(2)-2-2--|-4--4-4-(4)-4-4--|-4--4-4-2--2-2-|
|-2--2-2-(2)-2-2--|-4--4-4-(4)-4-4--|-2--2-2-0--0-0-|
|-0--0-0-(0)-0-0--|-2--2-2-(2)-2-2--|---------------|


  G#5    G5    E5                 F#5
|----------------|--------------|-------------||
|----------------|--------------|-------------||
|----------------|--------------|-------------||
|-6--6-6-5-5-5-2-|-2--2-2-2--2--|-4--4-4-4----||
|-6--6-6-5-5-5-2-|-2--2-2-2--2--|-4--4-4-4----||
|-4--4-4-3-3-3-0-|-0--0-0-0--0--|-2--2-2-2----||


   Verse
    B5      A5        G#5     G5          B5          A5
    Gtr I
    PM---------------------------------------------------------|
                                       3x
||------------------|------------------||-------------------------|
||o-----------------|-----------------o||-------------------------|
||------------------|------------------||-------------------------|
||------------------|------------------||-(9)--(9)-x\-(7)--(7)-x\-|
||o-9--9-x\-7--7-x\-|-6--6-x\-5-5-5/--o||--9----9--x\--7----7--x\-|
||--7--7-x\-5--5-x\-|-4--4-x\-3-3-3/---||--7----7--x\--5----5--x\-|


  G#5         G5
   PM------------------------
|---------------------------|
|---------------------------|
|---------------------------|
|-(6)--(6)-x\-(5)-(5)-(5)/--|
|--6----6--x\--5---5---5/---|
|--4----4--x\--3---3---3/---|


  B5          A5            G#5         G5
 -----------------------------------------------|
|-------------------------|--------------------------|
|-------------------------|--------------------------|
|-------------------------|--------------------------|
|-(9)--(9)-x\-(7)--(7)-x\-|-(6)--(6)-x\-(5)-(5)-(5)--|
|--9----9--x\--7----7--x\-|--6----6--x\--5---5---5---|
|--7----7--x\--5----5--x\-|--4----4--x\--3---3---3---|


  H=H                 Q=203
  Gtr V
  TP          TP       TP
|-7s=======|=14s======19---||
|-0--------|-(0)------(0)--||
|----------|---------------||
|----------|---------------||
|----------|---------------||
|----------|---------------||


 Guitar Solo
  Fast Rock Q=162(8=s8)
  B5                  D5                    G5                  F#5
  Gtr III
|-----------------------------------------|-------------------------------------------|
|-12-12-12-12-12---12-12-12-12-12-12---12S|=15-15-15-15-15---15-15-15---15-15-15---15S|
|-----------------------------------------|-------------------------------------------|
|--9--9--9--9--9----9--9--9--9--9--9----9S|=12-12-12-12-12---12-12-12---12-12-12---12S|
|-----------------------------------------|-------------------------------------------|
|-----------------------------------------|-------------------------------------------|
|
| Gtrs I, II
|-----------------------------------------|-------------------------------------------|
|-----------------------------------------|-------------------------------------------|
|--4--------4----4-----7--------7----7----|-------------------------------------------|
|--4--------4----4-----7--------7----7----|--5--------5----5-----4----4-----4----4----|
|--2--------2----2-----5--------5----5----|--5--------5----5-----4----4-----4----4----|
|-----------------------------------------|--3--------3----3-----2----2-----2----2----|


  B5                  D5
|------------------------------------------|
|-12-12-12-12-12---12-12-12-12-12-12---12--|
|------------------------------------------|
|--9--9--9--9--9----9--9--9--9--9--9----9--|
|------------------------------------------|
|------------------------------------------|
|
|------------------------------------------|
|------------------------------------------|
|--4--------4----4-----7--------7----7-----|
|--4--------4----4-----7--------7----7-----|
|--2--------2----2-----5--------5----5-----|
|------------------------------------------|


  G5            F#5               B5                  D5
|-------------------------------|-----------------------------------------|
|-8-8-8-8-8---8-7-7---7-7-7---7-|-12-12-12-12-12---12-12-12-12-12-12---12S|
|-------------------------------|-----------------------------------------|
|-5-5-5-5-5---5-4-4---4-4-4---4-|--9--9--9--9--9----9--9--9--9--9--9----9S|
|-------------------------------|-----------------------------------------|
|-------------------------------|-----------------------------------------|
|
|-------------------------------|-----------------------------------------|
|-------------------------------|-----------------------------------------|
|-------------------------------|--4--------4----4-----7--------7----7----|
|-5-----5---5---4---4---4---4---|--4--------4----4-----7--------7----7----|
|-5-----5---5---4---4---4---4---|--2--------2----2-----5--------5----5----|
|-3-----3---3---2---2---2---2---|-----------------------------------------|


  G5                  F#5
|-------------------------------------------|
|-15-15-15-15-15---15-15-15---15-15-15---15-|
|-------------------------------------------|
|-12-12-12-12-12---12-12-12---12-12-12---12-|
|-------------------------------------------|
|-------------------------------------------|
|
|-------------------------------------------|
|-------------------------------------------|
|-------------------------------------------|
|--5--------5----5-----4----4-----4----4----|
|--5--------5----5-----4----4-----4----4----|
|--3--------3----3-----2----2-----2----2----|


  B5                      D5               G5
|---------------------------------------------|
|-17b19--17-17-17-17---17-17-17-17-17-17---17-|
|---------------------------------------------|
|-14b16--14-14-14-14---14-14-14-14-14-14---14-|
|---------------------------------------------|
|---------------------------------------------|
|
|---------------------------------------------|
|---------------------------------------------|
|--4------------4----4-----7--------7----7----|
|--4------------4----4-----7--------7----7----|
|--2------------2----2-----5--------5----5----|
|---------------------------------------------|


                   F#5
|-17-17-17-17-17---17-17---(17)---|
|-17-17-17-17-17---17-17r--(17)---|
|---------------------------------|
|-14-14-14-14-14---14-14r--(14)---|
|---------------------------------|
|---------------------------------|
|
|---------------------------------|
|---------------------------------|
|---------------------------------|
|--5--------5----5-----4-4---4--4-|
|--5--------5----5-----4-4---4--4-|
|--3--------3----3-----2-2---2--2-|


  B5       D5         G5       F#5         B5       D5
|-------------------|--------------------|-------------------|
|-17--15---12--15---|-17--15---12---15---|-17--15---12--10---|
|-------------------|--------------------|-------------------|
|-14--12----9--12---|-14--12----9---12---|-14--12----9---7---|
|-------------------|--------------------|-------------------|
|-------------------|--------------------|-------------------|
|
|-------------------|--------------------|-------------------|
|-------------------|--------------------|-------------------|
|--4---4-4--7---7-7-|--------------------|--4---4-4--7---7-7-|
|--4---4-4--7---7-7-|--5---5-5--4-4--4-4-|--4---4-4--7---7-7-|
|--2---2-2--5---5-5-|--5---5-5--4-4--4-4-|--2---2-2--5---5-5-|
|-------------------|--3---3-3--2-2--2-2-|-------------------|


  G5       F#5             B5        D5         G5        F#5
|------------------------|--------------------|---------------------|
|-12--15---12---10-(10)\-|-/12--15---17--15---|-/12--15---17---15---|
|------------------------|--------------------|---------------------|
|--9--12----9----7--(7)\-|--/9--12---14--12---|--/9--12---14---12---|
|------------------------|--------------------|---------------------|
|------------------------|--------------------|---------------------|
|
|------------------------|--------------------|---------------------|
|------------------------|--------------------|---------------------|
|------------------------|---4---4-4--7---7-7-|---------------------|
|--5---5-5--4-4--4---4---|---4---4-4--7---7-7-|---5---5-5--4-4--4-4-|
|--5---5-5--4-4--4---4---|---2---2-2--5---5-5-|---5---5-5--4-4--4-4-|
|--3---3-3--2-2--2---2---|--------------------|---3---3-3--2-2--2-2-|


  B5                      D5
|---------------------------------------------|
|-17b19--17-17-17-17---17-17-17-17-17-17---17-|
|---------------------------------------------|
|-14b16--14-14-14-14---14-14-14-14-14-14---14-|
|---------------------------------------------|
|---------------------------------------------|
|
|---------------------------------------------|
|---------------------------------------------|
|--4------------4----4-----7--------7----7----|
|--4------------4----4-----7--------7----7----|
|--2------------2----2-----5--------5----5----|
|---------------------------------------------|


  G5                  F#5
|-17-17-17-17-17---17-17-17---17-17-17---17--||
|-17-17-17-17-17---17-17-17---17-17-17---17r-||
|--------------------------------------------||
|-14-14-14-14-14---14-14-14---14-14-14---14r-||
|--------------------------------------------||
|--------------------------------------------||
|
|--------------------------------------------||
|--------------------------------------------||
|--------------------------------------------||
|--5--------5----5-----4----4-----4----4-----||
|--5--------5----5-----4----4-----4----4-----||
|--3--------3----3-----2----2-----2----2-----||


 Chorus
  E5                F#5               B5     A5       G#5    G5    E5
  Gtrs I, II
|-----------------|-----------------|---------------|-----------------|
|-----------------|-----------------|---------------|-----------------|
|-----------------|-----------------|-4--4-4-2--2-2-|-----------------|
|-2--2-2-(2)-2-2--|-4--4-4-(4)-4-4--|-4--4-4-2--2-2-|-6--6-6-5-5-5-2--|
|-2--2-2-(2)-2-2--|-4--4-4-(4)-4-4--|-2--2-2-0--0-0-|-6--6-6-5-5-5-2--|
|-0--0-0-(0)-0-0--|-2--2-2-(2)-2-2--|---------------|-4--4-4-3-3-3-0--|


                                   Outro
                 F#5                B5     D5       G5     F#5
                                                                     4x
|--------------|----------------||----------------|------------------||
|--------------|----------------||o---------------|-----------------o||
|--------------|----------------||--4--4-4-7--7-7-|------------------||
|-2--2-2-2--2--|-4--4-4-4-4-4-4-||--4--4-4-7--7-7-|-5--5-5-4-4-4-4---||
|-2--2-2-2--2--|-4--4-4-4-4-4-4-||o-2--2-2-5--5-5-|-5--5-5-4-4-4-4--o||
|-0--0-0-0--0--|-2--2-2-2-2-2-2-||----------------|-3--3-3-2-2-2-2---||


  B5                  D5                    G5                  F#5
  Gtr III
|-----------------------------------------|-------------------------------------------|
|-12-12-12-12-12---12-12-12-12-12-12---12S|-15-15-15-15-15---15-15-15---15-15-15---15S|
|-----------------------------------------|-------------------------------------------|
|--9--9--9--9--9----9--9--9--9--9--9----9S|-12-12-12-12-12---12-12-12---12-12-12---12S|
|-----------------------------------------|-------------------------------------------|
|-----------------------------------------|-------------------------------------------|
|
| Gtrs I, II
|-----------------------------------------|-------------------------------------------|
|-----------------------------------------|-------------------------------------------|
|--4--------4----4-----7--------7----7----|-------------------------------------------|
|--4--------4----4-----7--------7----7----|--5--------5----5-----4----4-----4----4----|
|--2--------2----2-----5--------5----5----|--5--------5----5-----4----4-----4----4----|
|-----------------------------------------|--3--------3----3-----2----2-----2----2----|


  B5                  D5
|------------------------------------------|
|-12-12-12-12-12---12-12-12-12-12-12---12--|
|------------------------------------------|
|--9--9--9--9--9----9--9--9--9--9--9----9--|
|------------------------------------------|
|------------------------------------------|
|
|------------------------------------------|
|------------------------------------------|
|--4--------4----4-----7--------7----7-----|
|--4--------4----4-----7--------7----7-----|
|--2--------2----2-----5--------5----5-----|
|------------------------------------------|


  G5            F#5               B5                  D5
|-------------------------------|-----------------------------------------|
|-8-8-8-8-8---8-7-7---7-7-7---7-|-12-12-12-12-12---12-12-12-12-12-12---12S|
|-------------------------------|-----------------------------------------|
|-5-5-5-5-5---5-4-4---4-4-4---4-|--9--9--9--9--9----9--9--9--9--9--9----9S|
|-------------------------------|-----------------------------------------|
|-------------------------------|-----------------------------------------|
|
|-------------------------------|-----------------------------------------|
|-------------------------------|-----------------------------------------|
|-------------------------------|--4--------4----4-----7--------7----7----|
|-5-----5---5---4---4---4---4---|--4--------4----4-----7--------7----7----|
|-5-----5---5---4---4---4---4---|--2--------2----2-----5--------5----5----|
|-3-----3---3---2---2---2---2---|-----------------------------------------|


  G5                  F#5
|-------------------------------------------|
|-15-15-15-15-15---15-15-15---15-15-15---15-|
|-------------------------------------------|
|-12-12-12-12-12---12-12-12---12-12-12---12-|
|-------------------------------------------|
|-------------------------------------------|
|
|-------------------------------------------|
|-------------------------------------------|
|-------------------------------------------|
|--5--------5----5-----4----4-----4----4----|
|--5--------5----5-----4----4-----4----4----|
|--3--------3----3-----2----2-----2----2----|


  B5                      A5                    G#5                   B6/F#
                                                                      Gtr IV
|---------------------------------------------|---------------------|-^4----*|
|-17b19==17-17-17-17---17-17-17-17-17-17---17-|-17-17---17-17r------|-^4----*|
|---------------------------------------------|---------------------|-^4----*|
|-14b16==14-14-14-14---14-14-14-14-14-14---14-|-14-14---14-14r------|-^4----*|
|---------------------------------------------|---------------------|-^2----*|
|---------------------------------------------|---------------------|-^2----*|
|
|---------------------------------------------|---------------------|-------*|
|---------------------------------------------|---------------------|-------*|
|--4------------4----4-----2--------2----2----|---------------------|-------*|
|--4------------4----4-----2--------2----2----|--6----6-----6-------|-------*|
|--2------------2----2-----0--------0----0----|--6----6-----6-------|-------*|
|---------------------------------------------|--4----4-----4-------|-------*|


Tablature Legend
----------------
 h   - hammer-on
 p   - pull-off
 b   - bend
 pb  - pre-bend
 r   - bend release (if no number after the r, then release immediately)
 /\  - slide into or out of (from/to "nowhere")
 s   - legato slide
 S   - shift slide
  - natural harmonic
[n]  - artificial harmonic
n(n) - tapped harmonic
 ~   - vibrato
 tr  - trill
 T   - tap
 TP  - trem. picking
 PM  - palm muting
\n/  - tremolo bar dip; n = amount to dip
 \n  - tremolo bar down
 n/  - tremolo bar up
/n\  - tremolo bar inverted dip
 =   - hold bend; also acts as connecting device for hammers/pulls
 <>  - volume swell (louder/softer)
 x   - on rhythm slash represents muted slash
 o   - on rhythm slash represents single note slash

Misc Legend
-----------
 |  - bar
||  - double bar
||o - repeat start
o|| - repeat end
*|  - double bar (ending)
 :  - bar (freetime)
 $  - Segno
 &  - Coda
Tempo markers -  = BPM(8/16=s8/s16), where s8 = swing 8ths, s16 = swing 16ths

            
            
Suggest correction
Creating personal tab
Creating personal tab
You can edit any tab online and save it as your Personal.

You can edit, replace or remove any tab part or add personal notes – all changes will be seen only by you.

Personal tabs can be accessed anytime from any device, even offline.
Learn more »
comments
print report bad tab
4 comments total. Showing first comments.
0 reply
jjrawson 20 Jul 31, 2005 08:00 PM

You have way too much time on your hands

0 reply
Donkey Fly 2,636 Aug 20, 2005 08:00 PM

lol... im only 14 and its summer holiday so i have time yes

0 reply
jjrawson 20 Aug 30, 2005 08:00 PM

ha ha

guest
You may want to rate the tab now too:
select rating
Wanna post a correction for this tab? Suggest correction