Oops, an error
Loading. Please wait.
We have an official Know Your Enemy tab made by UG professional guitarists. Check out the tab »
×
163,779 views 30 this week
9 commentsread comments
1 2 3 4 5
x 37
add to favorites
×
Save as Personal and add changes to this tab that will be seen only by you. Learn more ›
×
You can save this tab as Personal to edit and correct it or add notes. All changes will be seen only by you. Learn more »
launch autoscroll
font size
0
reset
how to read this tab
guitar tuner
backing track
0:00
0:00
edit
Autoscroll
slow
fast
+/-
esc
set tempo
stop
Author
e|--------------------------------------11-----------------------------------|
B|-12-12-12-----12-12----------12----12----12------12-12-12----12-12-12------|
G|----------11--------11-11-11----11----------11~-----------11----------11---|
D|---------------------------------------------------------------------------|
A|---------------------------------------------------------------------------|
E|---------------------------------------------------------------------------|

e|------------------------------------------------------------11-------------|
B|-14-14-14----14-14---14-12-12-12----12-12----------12----12----12----------|
G|----------11-------11------------11-------11-11-11----11----------11~------|
D|---------------------------------------------------------------------------|
A|---------------------------------------------------------------------------|
E|---------------------------------------------------------------------------|

e|---------------------------------------------------------------------------|
B|--12-12-12----12-12-12----14-14-14----14-14----14~-------12---12-----------|
G|-----------11----------11----------11-------11-------9-9----9----9-8-4-----|
D|---------------------------------------------------------------------------|
A|---------------------------------------------------------------------------|
E|---------------------------------------------------------------------------|

e|-------7-------------------------------7-----------------------------------|
B|---7-----7---------12---12---------7-----7---------12---12---------7-------|
G|-4---4-----4~--9-9----9----9-8-4--4--4-----4~--9-9----9----9-8-4-4---4-----|
D|---------------------------------------------------------------------------|
A|---------------------------------------------------------------------------|
E|---------------------------------------------------------------------------|

e|-7-------------------------------------------------------------------------|
B|---7------7~---------------------------------------------------------------|
G|-----4~--------------------------------------------------------------------|
D|---------------------------------------------------------------------------|
A|---------------------------------------------------------------------------|
E|---------------------------------------------------------------------------|



************************************

| ~  Vibrato

************************************

            
            
Suggest correction
Creating personal tab
Creating personal tab
You can edit any tab online and save it as your Personal.

You can edit, replace or remove any tab part or add personal notes – all changes will be seen only by you.

Personal tabs can be accessed anytime from any device, even offline.
Learn more »
comments
print report bad tab
9 comments total. Showing first comments.
0 reply
andocommando 10 Jun 23, 2009 04:34 PM

i think its placement on the neck is better than the other 2. it sounds correct to me,the others sound ok, but i think this one is most accurate.good job it only took me part of an afternoon to nail it down.keep up the good work.

0 reply
NIRVANAPLAYER 61 Jul 03, 2009 01:24 PM

thanks! i actually based it off of this video "http://www.youtube.com/watch?v=9Yjcmtx1iig". this guy has a ****ing amazing lesson for this song, and i talked to him and he said he'd link it to his site to go hand-in-hand with the solo in the vid. so i dont really take full credit for this tab, but i sure as hell helped transcribe it to a tab!

+1 reply
ozzking321 10 Jul 19, 2009 09:06 PM

this is a pretty good tab but i think it is easier to play it like:
e|7-7-7--7-7------7-7-11-7---7-7-7--7-7-7--9-9--9-9-9 :repeat 1 more
b|---7------7-7-7--7------7--------7-----7----7----7-7
g|----------------------------------------------------
d|----------------------------------------------------
a|----------------------------------------------------
e|----------------------------------------------------

then it goes

e|---7----7-7----7---------------------------------------: then repeat
b|5-5--5-5-5---5---5------------------------------------- 2 more times
g|----------4-4-4----4-----------------------------------
d|-------------------------------------------------------
a|-------------------------------------------------------
e|-------------------------------------------------------

guest
You may want to rate the tab now too:
select rating
Wanna post a correction for this tab? Suggest correction