Oops, an error
Loading. Please wait.
We have an official Pulling Teeth tab made by UG professional guitarists. Check out the tab »
×
1,193 views 1 this week
11 commentsread comments
1 2 3 4 5
x 5
add to favorites
×
Save as Personal and add changes to this tab that will be seen only by you. Learn more ›
×
You can save this tab as Personal to edit and correct it or add notes. All changes will be seen only by you. Learn more »
launch autoscroll
font size
0
reset
how to read this tab
guitar tuner
backing track
0:00
0:00
edit
Autoscroll
slow
fast
+/-
esc
set tempo
stop
e|-------------------|-------------------------|----------------------|--------|
B|--5--5--5--5----2--|----2--2--2--0--5--5--5--|--5-----5--5--5-------|--4--5--|
G|--6--4-----4----2--|----2--2--2--1--4--4--4--|--4-h6--4-----4----0--|--4--4--|
D|--------6----------|-------------------------|-----------6----------|--------|
A|-------------------|-------------------------|----------------------|--------|
E|-------------------|-------------------------|----------------------|--------|


e|----------------------|--0--0--0--0-0--0--0---0--0---|--0---0---0---0---0--|
B|--5--7-7--7--5--4--4--|--5--5--5--9-9--9--10--9--10--|-/12--12--10--10--9--|
G|--4--4-4--4--4--4--4--|------------------------------|---------------------|
D|----------------------|------------------------------|---------------------|
A|----------------------|------------------------------|---------------------|
E|----------------------|------------------------------|---------------------|

                                                      Harm---|
e|--0--0--0---|--0---0--0-----0--0--0--0--|---------------12-----|
B|--9--9--10--|--10--9--9--7--7--7--5--5--|-----0--0--12---------|
G|------------|---------------------------|----------------------|
D|------------|---------------------------|----------------------|
A|------------|---------------------------|----------------------|
E|------------|---------------------------|----------------------|

            
            
Suggest correction
Creating personal tab
Creating personal tab
You can edit any tab online and save it as your Personal.

You can edit, replace or remove any tab part or add personal notes – all changes will be seen only by you.

Personal tabs can be accessed anytime from any device, even offline.
Learn more »
comments
print report bad tab
11 comments total. Showing first comments.
0 reply
harry394potter 27 Oct 04, 2014 03:41 PM

Accurate to KcFoxNavy's cover but not the original... Still a good tab!!

-2 reply
GuitarKing12590 20 Nov 21, 2014 02:30 PM

This Is Terrible. Not Even Close. Is There A Negative Star Rating? I Wish.

+1 reply
harry394potter 27 Nov 23, 2014 07:19 AM

This is actually tabbed to a cover of the song, and in that sense it's accurate.

guest
You may want to rate the tab now too:
select rating
Wanna post a correction for this tab? Suggest correction