Oops, an error
Loading. Please wait.
We have an official She tab made by UG professional guitarists. Check out the tab »
×

She bass

version 5
version 5

Whole song

76 views 1 this week
2 commentsread comments
1 2 3 4 5
2 more votes to show rating
add to favorites
×
Save as Personal and add changes to this tab that will be seen only by you. Learn more ›
×
You can save this tab as Personal to edit and correct it or add notes. All changes will be seen only by you. Learn more »
launch autoscroll
font size
0
reset
guitar tuner
backing track
0:00
0:00
edit
Autoscroll
slow
fast
+/-
esc
set tempo
stop
About this tab version
Transcribed from Rocksmith. Includes all fills and variations in the proper tuning, video link in tab. Was this info helpful? Yes No
https://www.youtube.com/watch?v=ciKQrRa3dDw

[Intro]
F#|-----------------|-----------------|-----------------|-----------------|
C#|-5---5---5-5-5-5-|---5-5---5-5-5---|-5---5---5-5-5-5-|---5-5---5-5-5---|
G#|-----------------|-----------------|-----------------|-----------------|
D#|-----------------|-----------------|-----------------|-----------------|

[Verse]
F#|-----------------|-----------------|-----------------|-----------------|
C#|-5---5---5-5-5-5-|---5-5---5-5-5-7-|-----------------|-----------------|
G#|-----------------|-----------------|-5---5---5-5-5-5-|---5-5---5-5-5p0-|
D#|-----------------|-----------------|-----------------|-----------------|

F#|-----------------|-----------------|-----------------|-----------------|
C#|-----------------|-----------------|-5---5---5-5-5-5-|---5-5---5-5-5---|
G#|-3---3---3-3-3-3-|---3-3---3-3-3h5-|-----------------|-----------------|
D#|-----------------|-----------------|-----------------|-----------------|

F#|-----------------|-----------------|-----------------|-----------------|
C#|-5---5---5-5-5-5-|---5-5---5-5-5-7-|-----------------|-----------------|
G#|-----------------|-----------------|-5---5---5-5-5-5-|---5-5---5-5-5p0-|
D#|-----------------|-----------------|-----------------|-----------------|

F#|-----------------|-----------------|-----------------|-----------------|
C#|-----------------|-4h5---4h5-------|-----------------|-----------------|
G#|-3---3-3-3-3-3-3-|-----3-----3-3p0-|-----------------|---------------3-|
D#|-----------------|-----------------|-3---3-3-3-3-3-3-|-3-3-3-3-3-3-3---|

[Chorus]
F#|-----------------|-----------------|-----------------|-----------------|
C#|-----------------|-----------------|-----------4h5---|-----------------|
G#|-5---5---5-5-5-5-|---5-5-5---5-5p0-|-3---3-3-3-------|-----------------|
D#|-----------------|-----------------|---------------3-|---3-3-3-3-3-3p0-|

F#|-----------------|-----------------|-----------------|-----------------|
C#|-----------------|-----------------|-----------4h5---|-----------------|
G#|-5---5---5-5-5-5-|---5-5-5---5-5p0-|-3---3-3-3-------|-----------------|
D#|-----------------|-----------------|---------------3-|---3-3-3-3h5-5p0-|

F#|-----------------|-----------------|-----------------|-----------------|
C#|-----------------|-----------------|-----------------|-----------------|
G#|-3---3-3-3-3-3p0-|---------------0-|-3---3-3-3-3-3p0-|---------------0-|
D#|-----------------|-3---3-3-3-3-3---|-----------------|-3---3-3-3-3-3---|

F#|-----------------|-----------------|-----------------|-----------------|
C#|-----------------|-----------------|-----------------|-----------------|
G#|-3---3-3-3-3-3p0-|-----------------|-5---5-5-5-5-5-5-|---5-5-5---5-5-0-|
D#|-----------------|-3---3-3-3-3-3-0-|-----------------|-----------------|

[Verse]
F#|-----------------|-----------------|-----------------|-----------------|
C#|-----------------|-----------------|-----------------|-----------------|
G#|-----------------|-------------3h5-|-5---5-5-0-5-0-5-|---5-5-5-5-5-5-0-|
D#|-3---3-3-0-3-5-3-|---3-3-3-3h5-----|-----------------|-----------------|

F#|-----------------|-----------------|-----------------|-----------------|
C#|-----------------|-----------------|-----------------|-----------------|
G#|-3---3-3-3-3-3-3-|---3-3-3-3-3-3h5-|-----------3-0---|-----------------|
D#|-----------------|-----------------|-3---0-3-0-----3-|---3-3-3-3-3-3p0-|

F#|-----------------|-----------------|-----------------|-----------------|
C#|-----------------|-----------------|-----------------|-----------------|
G#|-----------------|-------------3h5-|-5---5-5-0-5-0-5-|---5-5-5-5-5-5p0-|
D#|-3---3-3-0-3-0-3-|---3-3-3-3h5-----|-----------------|-----------------|

F#|-----------------|-----------------|-----------------|-----------------|
C#|-----------------|-4h5---4-5-5p4---|-----------------|-----------------|
G#|-3---3-3-3-3-3-3-|-----3---------5-|-----------3p0---|-------------3-5-|
D#|-----------------|-----------------|-3---3-3-0-----3-|---3-3-3-3h5-----|

[Chorus]
F#|-----------------|-----------------|-----------------|-----------------|
C#|-----------------|-----------------|-----------4h5---|-----------------|
G#|-5---5---5-5-5-5-|---5-5-5---5-5p0-|-3---3-3-3-------|-----------------|
D#|-----------------|-----------------|---------------3-|---3-3-3-3-3-3p0-|

F#|-----------------|-----------------|-----------------|-----------------|
C#|-----------------|-----------------|-----------4h5---|-----------------|
G#|-5---5---5-5-5-5-|---5-5-5---5-5p0-|-3---3-3-3-------|-----------5-5p0-|
D#|-----------------|-----------------|---------------3-|---3-3-3-3-------|

F#|-----------------|-----------------|-----------------|-----------------|
C#|-----------------|-----------------|-----------------|-----------------|
G#|-3---3-3-3-3-3p0-|-----------------|-3---3-3-3-3-3p0-|---------------0-|
D#|-----------------|-3---3-3-3-3-3p0-|-----------------|-3---3-3-3-3-3---|

F#|-----------------|-----------------|-----------------|-----------------|
C#|-----------------|-----------------|-----------------|-----------------|
G#|-3---3-3-3-3-3-0-|---------------5-|---5-5---5-5-5-5-|---5-5---5-5-5-0-|
D#|-----------------|-3---3-3-3-3-3---|-----------------|-----------------|

[Bridge]
F#|-----------------|-----------------|-----------------|-----------------|
C#|-----------------|-----------------|-----------------|---7---5---4-----|
G#|-----------------|-----------0-3h5-|-5---5-5-0-5-0-5-|-----5---5---5-0-|
D#|-3---3-3-0-3-0-3-|---3-3-3-3-------|-----------------|-----------------|

F#|-----------------|-----------------|-----------------|-----------------|
C#|-----------------|-4-5---4h5-5p4---|-----------------|-----------------|
G#|-3---3-3-3-3-3-3-|-----3---------5-|-----------3-0---|-----------------|
D#|-----------------|-----------------|-3---3-3-0-----3-|---3-3-3-3-3-3-0-|

F#|-----------------|-----------------|-----------------|-----------------|
C#|-----------------|-----------------|-----------------|-----4-5-7-5-4---|
G#|-----------------|-------------3h5-|-5---5-5-0-5-0-5-|---5-----------5-|
D#|-3---3-3-0-3-0-3-|---3-3-3-3h5-----|-----------------|-----------------|

F#|-----------------|-----------------|-----------------|-----------------|
C#|-----------------|-4h5---4h5-5p4---|-----------------|-----------------|
G#|-3---3-3-3-3-3-3-|-----3---------5-|-----------3-0---|-------------3h5-|
D#|-----------------|-----------------|-3---3-3-0-----3-|---3-3-3-3h5-----|

[Chorus]
F#|-----------------|-----------------|-----------------|-----------------|
C#|-----------------|-----------------|-----------4h5---|-----------------|
G#|-5---5---5-5-5-5-|---5-5-5---5-5p0-|-3---3-3-3-------|-----------------|
D#|-----------------|-----------------|---------------3-|---3-3-3-3-3-3p0-|

F#|-----------------|-----------------|-----------------|-----------------|
C#|-----------------|-----------------|-----------4h5---|-----------------|
G#|-5---5---5-5-5-5-|---5-5-5---5-5p0-|-3---3-3-3-------|-----------5-5p0-|
D#|-----------------|-----------------|---------------3-|---3-3-3-3-------|

F#|-----------------|-----------------|-----------------|-----------------|
C#|-----------------|-----------------|-----------------|-----------------|
G#|-3---3-3-3-3-3p0-|-----------------|-3---3-3-3-3-3-0-|-----------------|
D#|-----------------|-3---3-3-3-3-3p0-|-----------------|-3---3-3-3-3-3-0-|

F#|-----------------|-----------------|-----------------|-----------------|
C#|-----------------|-----------------|-----------------|-----------------|
G#|-3---3-3-3-3-3-0-|---------------3-|-5---5-5-5-5-5-5-|-5-5-5-5-5-5-5p0-|
D#|-----------------|-3---3-3-3-3-3---|-----------------|-----------------|

[Ending]
F#|-----------------|
C#|-5\--------------|
G#|-----------------|
D#|-----------------|


************************************

| h   Hammer-on
| p   Pull-off
| \   Slide down

************************************

            
            
Suggest correction
Creating personal tab
Creating personal tab
You can edit any tab online and save it as your Personal.

You can edit, replace or remove any tab part or add personal notes – all changes will be seen only by you.

Personal tabs can be accessed anytime from any device, even offline.
Learn more »
Give kudos to tab author, rate the tab!
1 2 3 4 5
comments
print report bad tab
2 comments total.
+1 reply
1CrookedVulture 46 Sep 13, 2017 10:37 AM

Thanks man; I love Rocksmith, but sometimes the notes can be hard to read...

+1 reply
scottr7 1,347 Sep 13, 2017 11:48 AM

Yeah it gets a little cluttered during the fills.

guest
You may want to rate the tab now too:
select rating
Wanna post a correction for this tab? Suggest correction