Oops, an error
Loading. Please wait.
We have an official Stay The Night tab made by UG professional guitarists. Check out the tab »
×
2,361 views 3 this week
1 commentread comment
1 2 3 4 5
x 4
add to favorites
×
Save as Personal and add changes to this tab that will be seen only by you. Learn more ›
×
You can save this tab as Personal to edit and correct it or add notes. All changes will be seen only by you. Learn more »
launch autoscroll
font size
0
reset
guitar tuner
edit
Autoscroll
slow
fast
+/-
esc
set tempo
stop
Author
Difficulty
                                  stay the night 
                                    green day
                                       uno
 bass 1 - E A D G

intro   bpm-132  key-d majour
     play 14 times
|-|--------------||-----------------|-----------------|-----------------|
|4|--------------||-----------------|-----------------|-----------------|
|4|--------------||-5---5-5-5-5-5-5-|---------5---5-5-|-----------------|
|-|--------------||-----------------|-5---5-5---------|-3---3---3-3-3---|
   |   |   |   |    |   |   |   |     |   |   |   |     |   |   |   |

|-----------------|-----------------|-----------------|-----------------|
|-----------------|-----------------|-----------------|-----------------|
|-----------------|-5---5-5-5-5-5-5-|---------5---5-5-|-10--10--101010--|
|-5---5-5-5-5-5-5-|-----------------|-5---5-5---------|-----------------|
  |   |   |   |     |   |   |   |     |   |   |   |     |   |   |   |

                   verse 1
|-----------------|-----------------|-----------------|-----------------|
|-----------------|-----------------|-----------------|-----------------|
|-12--121212121212|-5---5-5-5-5-5-5-|-5-5-5-5-5-5-5-5-|-----------------|
|-----------------|-----------------|-----------------|-3-3-3-3-3-3-3-3-|
  |   |   |   |     |   |   |   |     |   |   |   |     |   |   |   |

|-----------------|-----------------|-----------------|-----------------|
|-----------------|-----------------|-----------------|-----------------|
|-----------------|-5---5-5-5-5-5-5-|-5-5-5-5-5-5-5-5-|-----------------|
|-3-3-3-3-3-3-3-3-|-----------------|-----------------|-3-3-3-3-3-3-3-3-|
  |   |   |   |     |   |   |   |     |   |   |   |     |   |   |   |

|-----------------|-----------------|-----------------|-----------------|
|-----------------|-----------------|-----------------|-----------------|
|-----------------|-5---5-5-5-5-5-5-|-5-5-5-5-5-5-5-5-|-----------------|
|-5-5-5-5-5-5-5-5-|-----------------|-----------------|-3-3-3-3-3-3-3-3-|
  |   |   |   |     |   |   |   |     |   |   |   |     |   |   |   |

|-----------------|-----------------|-----------------|-----------------|
|-----------------|-----------------|-----------------|-5-5-5-5-5-5-5-5-|
|-----------------|-5---5-5-5-5-5-5-|-5-5-5-5-5-5-5-5-|-----------------|
|-3-3-3-3-3-3-3-3-|-----------------|-----------------|-----------------|
  |   |   |   |     |   |   |   |     |   |   |   |     |   |   |   |

                   pre-chorus 
|-----------------|-----------------|-----------------|-----------------|
|-7-7-7-7-7-7-7-7-|-------------5---|-----------------|-------------7---|
|-----------------|-2---2---2-2-----|-----------------|-5---5---5-5-----|
|-----------------|---------------3-|---3-3-3-3-3-3-3-|---------------5-|
  |   |   |   |     |   |   |   |     |   |   |   |     |   |   |   |

|-----------------|-----------------|-----------------|-----------------|
|-----------------|-------------5---|-----------------|-----------------|
|---------4-5-4---|-2---2---2-2-----|-----------------|-5---5---5-5-5-10|
|---5-5-5-------5-|---------------3-|---3-3-3-3-3-3-3-|-----------------|
  |   |   |   |     |   |   |   |     |   |   |   |     |   |   |   |

                                     chorus
|-----------------|-----------------|-----------------|-----------------|
|-----------------|-----------------|-----------------|-----------------|
|-1212121212121212|-12121212--------|-5---5-5-5-5-5-5-|---------5---5-5-|
|-----------------|-----------------|-----------------|-5---5-5---------|
  |   |   |   |     |   |   |   |     |   |   |   |     |   |   |   |   

|-----------------|-----------------|-----------------|-----------------|
|-----------------|-----------------|-----------------|-----------------|
|-----------------|-----------------|-5---5-5-5-5-5-5-|---------5---5-5-|
|-3---3---3-3-3---|-5---5-5-5-5-5-5-|-----------------|-5---5-5---------|
  |   |   |   |     |   |   |   |     |   |   |   |     |   |   |   |

|-----------------|-----------------|-----------------|-----------------|
|-----------------|-----------------|-----------------|-----------------|
|-10--10--101010--|-12--121212121212|-5---5-5-5-5-5-5-|---------5---5-5-|
|-----------------|-----------------|-----------------|-5---5-5---------|
  |   |   |   |     |   |   |   |     |   |   |   |     |   |   |   |

|-----------------|-----------------|-----------------|-----------------|
|-----------------|-----------------|-----------------|-----------------|
|-----------------|-----------------|-5---5-5-5-5-5-5-|---------5---5-5-|
|-3---3---3-3-3---|-5---5-5-5-5-5-5-|-----------------|-5---5-5---------|
  |   |   |   |     |   |   |   |     |   |   |   |     |   |   |   |

|-----------------|-----------------|-----------------|-----------------|
|-----------------|-----------------|-----------------|-----------------|
|-10--10--101010--|-12121212--------|-5---5-5-5-5-5-5-|---------5---5-5-|
|-----------------|-----------------|-----------------|-5---5-5---------|
  |   |   |   |     |   |   |   |     |   |   |   |     |   |   |   |

                                     verse 2
|-----------------|-----------------|-----------------|-----------------|
|-----------------|-----------------|-----------------|-----------------|
|-----------------|-----------------|-5---5-5-5-5-5-5-|-5-5-5-5-5-5-5-5-|
|-3---3---3-3-3---|-5---5-5-5-5-5-5-|-----------------|-----------------|
  |   |   |   |     |   |   |   |     |   |   |   |     |   |   |   |  

|-----------------|-----------------|-----------------|-----------------|
|-----------------|-----------------|-----------------|-----------------|
|-----------------|-----------------|-5---5-5-5-5-5-5-|-5-5-5-5-5-5-5-5-|
|-3-3-3-3-3-3-3-3-|-3-3-3-3-3-3-3-3-|-----------------|-----------------|
  |   |   |   |     |   |   |   |     |   |   |   |     |   |   |   |

|-----------------|-----------------|-----------------|-----------------|
|-----------------|-----------------|-----------------|-----------------|
|-----------------|-----------------|-5---5-5-5-5-5-5-|-5-5-5-5-5-5-5-5-|
|-3-3-3-3-3-3-3---|-5-5-5-5-5-5-5-5-|-----------------|-----------------|
  |   |   |   |     |   |   |   |     |   |   |   |     |   |   |   |

|-----------------|-----------------|-----------------|-----------------|
|-5-5-5-5-5-5-5-5-|-5-5-5-5-5-5-5-5-|-----------------|-----------------|
|-----------------|-----------------|-5---5-5-5-5-5-5-|-5-5-5-5-5-5-5-5-|
|-----------------|-----------------|-----------------|-----------------|
  |   |   |   |     |   |   |   |     |   |   |   |     |   |   |   |

                                     pre-chorus
|-----------------|-----------------|-----------------|-----------------|
|-----------------|-----------------|-------------5---|-----------------|
|-----------------|-----------------|-2---2---2-2-----|-----------------|
|-3-3-3-3-3-3-3-3-|-5-5-5-5-5-5-5-5-|---------------3-|---3-3-3-3-3-3-3-|
  |   |   |   |     |   |   |   |     |   |   |   |     |   |   |   |

|-----------------|-----------------|-----------------|-----------------|
|-------------7---|-----------------|-------------5---|-----------------|
|-5---5---5-5-----|---------4-5-4---|-2---2---2-2-----|-----------------|
|---------------5-|---5-5-5-------5-|---------------3-|---3-3-3-3-3-3-3-|
  |   |   |   |     |   |   |   |     |   |   |   |     |   |   |   |

                                                       chorus
|-----------------|-----------------|-----------------|-----------------|
|-----------------|-----------------|-----------------|-----------------|
|-5---5---5-5-5-10|-1212121212121212|-1212121212121212|-5---5-5-5-5-5-5-|
|-----------------|-----------------|-----------------|-----------------|
  |   |   |   |     |   |   |   |     |   |   |   |     |   |   |   |

|-----------------|-----------------|-----------------|-----------------|
|-----------------|-----------------|-----------------|-----------------|
|---------5---5-5-|-----------------|-----------------|-5---5-5-5-5-5-5-|
|-5---5-5---------|-3---3---3-3-3---|-5---5-5-5-5-5-5-|-----------------|
  |   |   |   |     |   |   |   |     |   |   |   |     |   |   |   |

|-----------------|-----------------|-----------------|-----------------|
|-----------------|-----------------|-----------------|-----------------|
|---------5---5-5-|-10--10--101010--|-12--121212121212|-5---5-5-5-5-5-5-|
|-5---5-5---------|-----------------|-----------------|-----------------|
  |   |   |   |     |   |   |   |     |   |   |   |     |   |   |   |

|-----------------|-----------------|-----------------|-----------------|
|-----------------|-----------------|-----------------|-----------------|
|---------5---5-5-|-----------------|-----------------|-5---5-5-5-5-5-5-|
|-5---5-5---------|-3---3---3-3-3---|-5---5-5-5-5-5-5-|-----------------|
  |   |   |   |     |   |   |   |     |   |   |   |     |   |   |   |

|-----------------|-----------------|-----------------|-----------------|
|-----------------|-----------------|-----------------|-0---------------|
|---------5---5-5-|-10--10--101010--|-12121212--------|-----------------|
|-5---5-5---------|-----------------|-----------------|-----------------|
  |   |   |   |     |   |   |   |     |   |   |   |     |   |   |   |

|-----------------|-----------------|-11--------------|-----------------|
|-(0)-------------|-(0)-------------|---------12------|-0---------------|
|-----------------|-----------------|-------------12--|-----------------|
|-----------------|-----------------|-----------------|-----------------|
  |   |   |   |     |   |   |   |     |   |   |   |     |   |   |   |

|-11--------------|-----------------|-----14----------|-----------------|
|---------12------|-----------------|-14--------------|-0---------------|
|-------------12--|-0---------------|-----------------|-----------------|
|-----------------|-----------------|-----------------|-----------------|
  |   |   |   |     |   |   |   |     |   |   |   |     |   |   |   |

|-11--------------|-----------------|-----12----------|-----------------|
|---------12------|-----------------|-12--------------|-----------------|
|-------------12--|-10------10------|-----------------|-12------12------|
|-----------------|-----------------|-----------------|-----------------|
  |   |   |   |     |   |   |   |     |   |   |   |     |   |   |   |

                   solo
|-----14----------|-----------------|-----------------|-----------------|
|-14------14------|-----------------|-----------------|-----------------|
|-------------12--|-5---5-5-5-5-5-5-|---------5---5-5-|-----------------|
|-----------------|-----------------|-5---5-5---------|-3---3---3-3-3---|
  |   |   |   |     |   |   |   |     |   |   |   |     |   |   |   |

|-----------------|-----------------|-----------------|-----------------|
|-----------------|-----------------|-----------------|-----------------|
|-----------------|-5---5-5-5-5-5-5-|---------5---5-5-|-10--10--101010--|
|-5---5-5-5-5-5-5-|-----------------|-5---5-5---------|-----------------|
  |   |   |   |     |   |   |   |     |   |   |   |     |   |   |   |

|-----------------|-----------------|-----------------|-----------------|
|-----------------|-----------------|-----------------|-----------------|
|-12--121212121212|-5---5-5-5-5-5-5-|---------5---5-5-|-----------------|
|-----------------|-----------------|-5---5-5---------|-3---3---3-3-3---|
  |   |   |   |     |   |   |   |     |   |   |   |     |   |   |   |

|-----------------|-----------------|-----------------|-----------------|
|-----------------|-----------------|-----------------|-5---5---5-5-5---|
|-----------------|-5---5-5-5-5-5-5-|---------5---5-5-|-----------------|
|-5---5-5-5-5-5-5-|-----------------|-5---5-5---------|-----------------|
  |   |   |   |     |   |   |   |     |   |   |   |     |   |   |   |

                   bridge
|-----------------|-----------------|-----------------|-----------------|
|-7---7-5-4-------|-----------------|-----------------|-----------------|
|-----------7-5-4-|-2---------------|/10--------------|-5-------4---0---|
|-----------------|-----------------|-----------------|-----------------|
  |   |   |   |     |   |   |   |     |   |   |   |     |   |   |   |

|-----------------|-----------------|-----------------|-----------------|
|-----------------|-----------------|-----------------|-----------------|
|-----------------|-2---------------|/10--------------|-5-------4---0---|
|-5-------3---2---|-----------------|-----------------|-----------------|
  |   |   |   |     |   |   |   |     |   |   |   |     |   |   |   |

|-----------------|-----------------|-----------------|-----------------|
|-----------------|-----------------|-----------------|-----------------|
|-1212121010109---|-2---------------|/10--------------|-5-------4---0---|
|-----------------|-----------------|-----------------|-----------------|
  |   |   |   |     |   |   |   |     |   |   |   |     |   |   |   |

|-----------------|-----------------|-----------------|-----------------|
|-----------------|-----------------|-----------------|-----------------|
|-----------------|-2---------------|/10--------------|-5-------4---0---|
|-5-------3---2---|-----------------|-----------------|-----------------|
  |   |   |   |     |   |   |   |     |   |   |   |     |   |   |   |

                                     chorus
|-----------------|-----------------|-----------------|-----------------|
|-----------------|-----------------|-----------------|-----------------|
|-1212121212121212|-12121212--------|-5---5-5-5-5-5-5-|---------5---5-5-|
|-----------------|-----------------|-----------------|-5---5-5---------|
  |   |   |   |     |   |   |   |     |   |   |   |     |   |   |   |   

|-----------------|-----------------|-----------------|-----------------|
|-----------------|-----------------|-----------------|-----------------|
|-----------------|-----------------|-5---5-5-5-5-5-5-|---------5---5-5-|
|-3---3---3-3-3---|-5---5-5-5-5-5-5-|-----------------|-5---5-5---------|
  |   |   |   |     |   |   |   |     |   |   |   |     |   |   |   |

|-----------------|-----------------|-----------------|-----------------|
|-----------------|-----------------|-----------------|-----------------|
|-10--10--101010--|-12--121212121212|-5---5-5-5-5-5-5-|---------5---5-5-|
|-----------------|-----------------|-----------------|-5---5-5---------|
  |   |   |   |     |   |   |   |     |   |   |   |     |   |   |   |

|-----------------|-----------------|-----------------|-----------------|
|-----------------|-----------------|-----------------|-----------------|
|-----------------|-----------------|-5---5-5-5-5-5-5-|---------5---5-5-|
|-3---3---3-3-3---|-5---5-5-5-5-5-5-|-----------------|-5---5-5---------|
  |   |   |   |     |   |   |   |     |   |   |   |     |   |   |   |

                                     outro
|-----------------|-----------------|-----------------|-----------------|
|-----------------|-----------------|-0---------------|-(0)-------------|
|-10--10--101010--|-12121212--------|-----------------|-----------------|
|-----------------|-----------------|-----------------|-----------------|
  |   |   |   |     |   |   |   |     |   |   |   |     |   |   |   |

|-----------------|-11--------------|-----------------|-11--------------|
|-(0)-------------|---------12------|-0---------------|---------12------|
|-----------------|-------------12--|-----------------|-------------12--|
|-----------------|-----------------|-----------------|-----------------|
  |   |   |   |     |   |   |   |     |   |   |   |     |   |   |   |

|-----------------|-----14----------|-----------------|-11--------------|
|-----------------|-14--------------|-0---------------|---------12------|
|-0---------------|-----------------|-----------------|-------------12--|
|-----------------|-----------------|-----------------|-----------------|
  |   |   |   |     |   |   |   |     |   |   |   |     |   |   |   |
                                                       rit.
|-----------------|-----12----------|-----------------|-----14----------|
|-----------------|-12--------------|-----------------|-14------14------|
|-10------10------|-----------------|-12------12------|-------------12--|
|-----------------|-----------------|-----------------|-----------------|
  |   |   |   |     |   |   |   |     |   |   |   |     |   |   |   |
 bpm-132
|-----------------|-----------------|-----------------|-----------------|
|-----------------|-----------------|-----------------|-----------------|
|-5-5-5-5-5-5-5-5-|-5-5-5-5-5-5-5-5-|-5-5-5-5-5-5-5-5-|-5-5-5-5-5-5-5-5-|
|-----------------|-----------------|-----------------|-----------------|
  |   |   |   |     |   |   |   |     |   |   |   |     |   |   |   |

|-----------------|-----------------|-----------------|-----------------|
|-----------------|-----------------|-----------------|-----------------|
|-5-5-5-5-5-5-5-5-|-5-5-5-5-5-5-5-5-|-5-5-5-5-5-5-5-5-|-5---------------|
|-----------------|-----------------|-----------------|-----------------|
  |   |   |   |     |   |   |   |     |   |   |   |     |   |   |   |

|-----------------|
|-----------------|
|-5---------------|
|-----------------|
  |   |   |   |

            
            
Suggest correction
Creating personal tab
Creating personal tab
You can edit any tab online and save it as your Personal.

You can edit, replace or remove any tab part or add personal notes – all changes will be seen only by you.

Personal tabs can be accessed anytime from any device, even offline.
Learn more »
comments
print report bad tab
1 comment total.
0 reply
katrina.chu.777 10 Apr 02, 2014 10:06 AM

Can you please reorganize this one like in the first version?
PLEASE :D

guest
You may want to rate the tab now too:
select rating
Wanna post a correction for this tab? Suggest correction