Oops, an error
Loading. Please wait.

Stop When The Red Lights Flash tab

version 4
version 4

Whole song

Interactive

6,039 views 15 this week
2 commentsread comments
1 2 3 4 5
x 14
add to favorites
×
Save as Personal and add changes to this tab that will be seen only by you. Learn more ›
×
You can save this tab as Personal to edit and correct it or add notes. All changes will be seen only by you. Learn more »
launch autoscroll
font size
0
reset
how to read this tab
guitar tuner
edit
Autoscroll
slow
fast
+/-
esc
set tempo
stop
Author
Difficulty
-----------------------------------------------------------------------------
              Stop When The Red Lights Flash - Green Day
-----------------------------------------------------------------------------
Tabbed by: ehbacon
E-mail: ehbacon@att.net

Tuning: Standard

Intro:
        
e|-------------------------------------------------------------|
B|-------------------------------------------------------------|
G|------7--------------------------7---------------------------|
D|-(XX)777-XX757---------------(7)777-7757---------------------|
A|-(XX)757-XX757-(x8-cleanly)--(7)757-7757-(x4-with-distortion)|
E|-(XX)5-5-XX535---------------(5)5-5-5535---------------------|

Verse (full distortion):

e|-------------------------------------------------------|
B|-------------------------------------------------------|
G|-7777777777777-1212-7777777777777777--7---------7------|
D|-7777777777777-1212-7777777777777777-777-7757-7777-7757|
A|-5555555555555-1010-5555555555555555-757-7757-7757-7757|
E|-------------------------------------5-5-5535-55-5-5535|
   Uncomfortable silence...



e|-------------------------------------------------------|
B|-------------------------------------------------------|
G|-7777777777777-1212-7777777777777777--7---------7------|
D|-7777777777777-1212-7777777777777777-777-7757-7777-7757|
A|-5555555555555-1010-5555555555555555-757-7757-7757-7757|
E|-------------------------------------5-5-5535-55-5-5535|
   I'm like ultra-violence...



e|-------------------------------------------|
B|-------------------------------------------|
G|-9999999999999999-7777777777777777--7------|
D|-9999999999999999-7777777777777777-777-7757|
A|-7777777777777777-5555555555555555-757-7757|
E|-----------------------------------5-5-5535|
   Out of sight out of mind...



e|------------------------------------------------------------------|
B|------------------------------------------------------------------|
G|---7---------7---------7-------7777777777777-1212-7777777777777777|
D|-7777-7757-7777-7757-7777-7757-7777777777777-1212-7777777777777777|
A|-7757-7757-7757-7757-7757-7757-5555555555555-1010-5555555555555555|
E|-55-5-5535-55-5-5535-55-5-5535------------------------------------|
   I'll make you surrender...     Stop when the red lights flash...



e|----------------------------------------------------------------|
B|----------------------------------------------------------------|
G|--7---------7-------7777777777777-1212-7777777777777777--7------|
D|-777-7757-7777-7757-7777777777777-1212-7777777777777777-777-7757|
A|-757-7757-7757-7757-5555555555555-1010-5555555555555555-757-7757|
E|-5-5-5535-55-5-5535-------------------------------------5-5-5535|
                       Life in the catacombs...



e|-----------------------------------------------------|
B|-----------------------------------------------------|
G|---7-------9999999999999999-7777777777777777--7------|
D|-7777-7757-9999999999999999-7777777777777777-777-7757|
A|-7757-7757-7777777777777777-5555555555555555-757-7757|
E|-55-5-5535-----------------------------------5-5-5535|
             Out of sight out of mind...



e|-------------------------------|
B|-------------------------------|
G|---7---------7---------7-------|
D|-7777-7757-7777-7757-7777-7757-|
A|-7757-7757-7757-7757-7757-7757-|
E|-55-5-5535-55-5-5535-55-5-5535-|
   I'll make you surrender...



Solo (full distortion):

e|------------------------------------------------------------------|
B|-10-10-10--10-10--10-10---10-10-10--10--12-12-12---14--17-14~-----|
G|-12b12b12b-12b12b-12-11---12-12b12b-12b-14b14b14b--16b--------16~-|
D|------------------------------------------------------------------|
A|------------------------------------------------------------------|
E|------------------------------------------------------------------|

e|--------------------------------------------------------------------|
B|-10-10-10--10-10--10-10---10-10-10--10--12-12-12---14--14-14-14-14--|
G|-12b12b12b-12b12b-12-11---12-12b12b-12b-14b14b14b--16b-16b16b16b16rb|
D|--------------------------------------------------------------------|
A|--------------------------------------------------------------------|
E|--------------------------------------------------------------------|

e|---------|
B|---------|
G|-14-16~--|
D|---------|
A|---------|
E|---------|


Chorus (small distortion):
e|------------------------------------------------------|
B|------------------------------------------------------|
G|-9-99999999999999--9-99999999999999--9-99999999999999-|
D|-9-99999999999999-99-99999999999999-99-99999999999999-|
A|-7-77777777777777-97-77777777777777-97-77777777777777-|
E|---00000000000000-7--00000000000000-7--00000000000000-|
     ..............    ..............    .............. 
   Out of sight out of mind...

e|-------------------|
B|-------------------|
G|-97-77777777777777-|
D|-97-77777777777777-|
A|-75-55555555555555-|
E|-------------------|
      ..............

Outro (full distortion):

e|-------------------------------------|
B|-------------------------------------|
G|-----7---------7-------------7-------|
D|-(7)777-7757-7777-7757------777\\\\--|
A|-(7)757-7757-7757-7757-(x2)-757\\\\--|
E|-(5)5-5-5535-55-5-5535------5-5\\\\--|
  I'll make you surrender...



in that order ^
************************************
| \   slide down
| x   Mute note
| b   Bend
| ~   vibrate
| ()  don't play first time, but play the rest of the time
| rb  release bend
************************************

            
            
Suggest correction
Creating personal tab
Creating personal tab
You can edit any tab online and save it as your Personal.

You can edit, replace or remove any tab part or add personal notes – all changes will be seen only by you.

Personal tabs can be accessed anytime from any device, even offline.
Learn more »
comments
print report bad tab
2 comments total.
0 reply
ehbacon 528 Jul 05, 2013 05:48 AM

edited on July 4th! hope it's helpful, please make corrections in comments!

0 reply
SuperMayson 10 Jul 21, 2014 08:04 PM

For some of the people wanting to learn this song, you could also just play this using basic chords. It only consists of A, D, G, and E. Also the occasional slide up from the d to the g holding in the d position though

guest
You may want to rate the tab now too:
select rating
Wanna post a correction for this tab? Suggest correction