Oops, an error
Loading. Please wait.
We have an official Stuart And The Ave tab made by UG professional guitarists. Check out the tab »
×
5,828 views 18 this week
1 commentread comment
1 2 3 4 5
x 5
add to favorites
×
Save as Personal and add changes to this tab that will be seen only by you. Learn more ›
×
You can save this tab as Personal to edit and correct it or add notes. All changes will be seen only by you. Learn more »
launch autoscroll
font size
0
reset
guitar tuner
backing track
0:00
0:00
edit
Autoscroll
slow
fast
+/-
esc
set tempo
stop
Green Day - Stuart and the Ave. bass tab
to hear this being played, watch my cover on youtube: http://www.youtube.com/watch?v=6KFTwN29v8w

Intro
Gb|--------------------------------------------------|
Db|-------4----------------------5-77-5-4------------|
Ab|-5-5-5---7-5-7-7-7-7h9----------------7-5-4-------|
Eb|-----------------------3-3-3-3--------------7-----|

Gb|---------------------------------------------------|
Db|-------4------------------------5-7-7-7-7-5-4------|
Ab|-5-5-5---7-5-7-7-7-7-7-7---------------------------|
Eb|-------------0-----------3-3-3-3-------------------|

============================================================

-Verse x2-
Gb|--------------------------------------------------|
Db|-------4-------------------------5----------------|
Ab|-5-5-5---7-5-7--------------------5-5-5-5-5-5h7---|
Eb|-------------0-0-0-0-0-0-3-3-3-3------------------|

Gb|--------------------------------------------------|
Db|-------4-------------------------5----------------|
Ab|-5-5-5---7-5-7------------------------------------|
Eb|-------------0-0-0-0-0-0-3-3-3-3--5-5-5-5-5-5-5-5-|

============================================================

-Chorus-
Gb|-------------------------------------------|
Db|-------4-2------------------4-2------------|
Ab|-2-2-2----4-----------2-2-2----4-----------|
Eb|------------3-3-3-3-3-----------3-3-3-3----|

    (before it might have made some sense)
Gb|-------------------------------------------------------|
Db|-------------------------------------------------------|
Ab|-5-5-5-5-5-5------------------------------55555--------|
Eb|-------------0-0-0-0-0-0-0-0-3-3-3-3-3---------55555---|

============================================================

-Post Chorus-
Gb|--------------------------------------------------|
Db|-------4--------------5-5-5-5-5-77-5-4------------|
Ab|-5-5-5---7-5-7-7-7-7------------------7-5-4-------|
Eb|-------------0------------------------------7-----|

============================================================

-Verse x2-

============================================================

-Chorus-

============================================================

Guitar/bass/drums run
Gb|--------------------------------------------------|
Db|-------4-------------------------5----------------|
Ab|-5-5-5---7-5-7--------------------5-5-5-5-5-5h7---|
Eb|-------------0-0-0-0-0-0-3-3-3-3------------------|

Gb|--------------------------------------------------|
Db|-------4--------------5-5-5-5-5-77-5-4------------|
Ab|-5-5-5---7-5-7-7-7-7------------------7-5-4-------|
Eb|-------------0------------------------------7-----|

Gb|--------------------------------------------------|
Db|-------4-------------------------5----------------|
Ab|-5-5-5---7-5-7--------------------5-5-5-5-5-5h7---|
Eb|-------------0-0-0-0-0-0-3-3-3-3------------------|

Gb|--------------------------------------------------|
Db|-------4-------------------------5----------------|
Ab|-5-5-5---7-5-7------------------------------------|
Eb|-------------0-0-0-0-0-0-3-3-3-3--5-5-5-5-5-5-5-5-|


============================================================

Chorus

============================================================

Ending
"we're all fucked up, your all fucked up"
Gb|-------------------------------------------------------|
Db|-------------------------------------------------------|
Ab|--5-5-5-5-5-5------------5-5-5-5-5-5----------5~-------|
Eb|--------------5-5-5-5-5-------------5-5-5-5-5----------|

            
            
Suggest correction
Creating personal tab
Creating personal tab
You can edit any tab online and save it as your Personal.

You can edit, replace or remove any tab part or add personal notes – all changes will be seen only by you.

Personal tabs can be accessed anytime from any device, even offline.
Learn more »
comments
print report bad tab
1 comment total.
0 reply
icyfireable 10 Dec 02, 2010 01:16 PM

nice man:D

guest
You may want to rate the tab now too:
select rating
Wanna post a correction for this tab? Suggest correction