Oops, an error
Loading. Please wait.
We have an official Troublemaker tab made by UG professional guitarists. Check out the tab »
×
4,556 views 9 this week
no commentswrite comment
1 2 3 4 5
x 6
add to favorites
×
Save as Personal and add changes to this tab that will be seen only by you. Learn more ›
×
You can save this tab as Personal to edit and correct it or add notes. All changes will be seen only by you. Learn more »
launch autoscroll
font size
0
reset
how to read this tab
guitar tuner
edit
Autoscroll
slow
fast
+/-
esc
set tempo
stop
I'm pretty sure this is 100% correct, but it's my first tab. Watch my lesson here:
http://youtu.be/wMURVtY8wMY

UPDATE: While at Guitar Center I checked the official tab book and found one or 
two errors. They have been corrected.

Tabbed By: Cameron Manis/TheGreenBlink41
E-mail: cameronmanis@hotmail.com
YouTube: TheGreenBlink41

Intro:
e-----x---x--------------------------------------------|
B-----x---x--------------------------------------------|
G-----x---x--------------------------------------------|
D-----x---x--------------------------------------------|
A-----x---x--------------------------------------------|
E-----x---x--------------------------------------------| (Repeatedly)

Verse:
e--------------------------------------------------------|
B--------------------------------------------------------|
G-------------------8--9--9--------7---------------------|
D----7--7--8--9--9--8--9--9--6--7--7---------------------|
A----7--7--8--9--9--6--7--7--6--7--5---------------------|
E----5--5--6--7--7-----------4--5------------------------|

Chorus:
e----------------------------------------------------|
B----------------------------------------------------|
G----------------------------------------------------|
D----7--7-0-4~---------------------------------------|
A----7--7-0-4~---------------------------------------|
E----5--5-0-2~---------------------------------------|

Solo:
e------------------------------------------------------------|
B------------------------------------------------------------|
G--3/8--9-11--13-14-14b\8------------------------------------|
D------------------------------------------------------------|
A------------------------------------------------------------|
E------------------------------------------------------------|

e-------------------14---------------------------------------|
B-----------------14--14---17b-17b-17b~----------------------|
G--16p14----14-16--------------------------------------------|
D--------16--------------------------------------------------|
A------------------------------------------------------------|
E------------------------------------------------------------|

e------------------------------------14----------------------|
B-17b-17-14-----------------------14----14-------------------|
G-------------16--16p14-----14-16-------------16-14~---------|
D------------------------16----------------------------------|
A------------------------------------------------------------|
E------------------------------------------------------------|

e-----------------------------------------------------------------------|
B-17p13-13-14-17p13-13-14-17p13-13-14-17p13-13-14-13-13b~---------------|
G----------------------------------------------------14b~---------------|
D-----------------------------------------------------------------------|
A-----------------------------------------------------------------------|
E-----------------------------------------------------------------------|

Bridge:
e--------------x-----------------------------------|
B--------------x-----------------------------------|
G--------------x-----------------------------------|
D---7--7--8--9-x-----------------------------------|
A---7--7--8--9-x-----------------------------------|
E---5--5--6--7-x-----------------------------------| (x3) (Mute repeatedly)

e------------------------------------------------|
B------------------------------------------------|
G------------------------------------------------|
D---7--7--8--9---------9-------------------------|
A---7--7--8--9---------9-------------------------|
E---5--5--6--7---------7-------------------------|

And there you go. If this wasn't clear, my video should be very helpful to you. Let me 
know if you have any suggestions.

            
            
Suggest correction
Creating personal tab
Creating personal tab
You can edit any tab online and save it as your Personal.

You can edit, replace or remove any tab part or add personal notes – all changes will be seen only by you.

Personal tabs can be accessed anytime from any device, even offline.
Learn more »
comments
print report bad tab
guest
You may want to rate the tab now too:
select rating
Wanna post a correction for this tab? Suggest correction