Oops, an error
Loading. Please wait.

Twenty Four tab

28 views 1 this week
no commentswrite comment
1 2 3 4 5
3 more votes to show rating
add to favorites
×
Save as Personal and add changes to this tab that will be seen only by you. Learn more ›
×
You can save this tab as Personal to edit and correct it or add notes. All changes will be seen only by you. Learn more »
launch autoscroll
font size
0
reset
how to read this tab
guitar tuner
edit
Autoscroll
slow
fast
+/-
esc
set tempo
stop
Mudhoney:Twenty Four
Album:Superfuzz Bigmuff

[Intro]
e|-------------------------------|
B|-------------------------------|
G|-5--5--3--3---3-3--------------|
D|-5--5--3--3---3-3--6--6--------|
A|-3--3--1--1---1-1--6--6--------|
E|-------------------4--4--------|   (x6)

[Verse]
e|-----------------------------------------|
B|-----------------------------------------|
G|-5--5--3--3---3-3---------------5-5/6-6--|
D|-5--5--3--3---3-3--6--6-5-5/6-6-5-5/6-6--|
A|-3--3--1--1---1-1--6--6-5-5/6-6-3-3/4-4--|
E|-------------------4--4-3-3/4-4----------|

Hes been drunk for twenty four years(four years)
If he had a dime for every time(one time?)
Someone tried to change him(change)
Hed be drunk for twenty four more(twenty four more)

[Chorus]
e|-----------------------------------------|
B|-----------------------------------------|
G|--8-8--8-8--8-8--10-10-------------------|
D|--8-8--8-8--8-8--10-10-------------------|
A|--6-6--6-6--6-6--8--8--------------------| (x4)
E|-----------------------------------------|

[Post-Chorus]

(before verse)
e|----------------------------|
B|----------------------------|
G|-11-11-11-11-11-11-11-11-11-|
D|-11-11-11-11-11-11-11-11-11-|
A|-9--9--9--9--9--9--9--9--9--|
E|----------------------------|

[Verse] 
e|-----------------------------------------|
B|-----------------------------------------|
G|-5--5--3--3---3-3---------------5-5/6-6--|
D|-5--5--3--3---3-3--6--6-5-5/6-6-5-5/6-6--|
A|-3--3--1--1---1-1--6--6-5-5/6-6-3-3/4-4--|
E|-------------------4--4-3-3/4-4----------|

I got trained to fight for the chain (yeah)
I've got a dime and its time to kill(time to kill)
I've been drunk for twenty four hours(drunk)
Someones always tryin' to change me(stupid heads)
I've been drunk for twenty four hours(really drunk)
And I'll stay drunk for twenty four more(yeah)

[Chorus] 
e|-----------------------------------------|
B|-----------------------------------------|
G|--8-8--8-8--8-8--10-10-------------------|
D|--8-8--8-8--8-8--10-10-------------------|
A|--6-6--6-6--6-6--8--8--------------------| (x4)
E|-----------------------------------------|

[Post-Chorus]
(before verse)
e|----------------------------|
B|----------------------------|
G|-11-11-11-11-11-11-11-11-11-|
D|-11-11-11-11-11-11-11-11-11-|
A|-9--9--9--9--9--9--9--9--9--|
E|----------------------------|

[Ending]

e|-----------------------------------|
B|-----------------------------------|
G|-5-5-3-3---------5-5-6-6-8-8-10-10-|
D|-5-5-3-3-6-6-5-5-5-5-6-6-8-8-10-10-|
A|-3-3-1-1-6-6-5-5-3-3-4-4-6-6-8--8--|
E|---------4-4-3-3-------------------|

At the end strum away at

e|----|
B|----|
G|-10-|
D|-10-|
A|-8--|
E|----|



************************************

| /  Slide up

************************************

            
            
Suggest correction
Creating personal tab
Creating personal tab
You can edit any tab online and save it as your Personal.

You can edit, replace or remove any tab part or add personal notes – all changes will be seen only by you.

Personal tabs can be accessed anytime from any device, even offline.
Learn more »
Give kudos to tab author, rate the tab!
1 2 3 4 5
comments
print report bad tab
guest
You may want to rate the tab now too:
select rating
Wanna post a correction for this tab? Suggest correction