Oops, an error
Loading. Please wait.

Breakup Song bass

version 1
version 1

Whole song

Interactive

4,960 views 6 this week
2 commentsread comments
1 2 3 4 5
x 4
add to favorites
×
Save as Personal and add changes to this tab that will be seen only by you. Learn more ›
×
You can save this tab as Personal to edit and correct it or add notes. All changes will be seen only by you. Learn more »
launch autoscroll
font size
0
reset
guitar tuner
edit
Autoscroll
slow
fast
+/-
esc
set tempo
stop
Author
-----------------------------------------------------------------------------
          THE BREAKUP SONG (THEY DON'T WRITE 'EM) - Greg Kihn Band
-----------------------------------------------------------------------------

Tabbed By: Matt Broback 
e-mail: 37hambone@gmail.com

Tuning: E A D G

INTRO
|--------|--------|--------|--------|--------|--------|--------|--------|
|--------|--------|--------|----020-|--------|--------|--------|---020--|
|0003-30-|---3-30-|---3-30-|0033---3|0003-30-|---3-30-|---3-30-|003---32|
|-------3|111----3|333----3|--------|-------3|111----3|333----3|--------|

VERSE
|---------|--------|--------|---------|
|:--------|--------|--------|--------:|
|:00000000|--------|--------|00000000:|
|---------|11111111|33333333|---------|

|--------|--------|--------|--------|--------|--------|--------|--------|
|--------|--------|--------|--------|--------|--------|--------|--------|
|0003-30-|---3-30-|---3-30-|0003-30-|0003-30-|---3-30-|---3-30-|0000----|
|-------3|111----3|333----3|-------3|-------3|111----3|333----3|----3333|

CHORUS
|--------|--------|--------|--------|------------|------------|--------|--------|
|--------|--------|--------|--------|------------|-------57p5-|--------|--------|
|--------|3-3-----|--------|5-5-----|-------35p3-|3-3-5/7----7|--------|--------|
|1-1-----|--------|3-3-----|--------|1-1-3/5----5|------------|33333333|33333333|


INTRO
VERSE
CHORUS
VERSE
CHORUS
VERSE
CHORUS - x3

            
            
Suggest correction
Creating personal tab
Creating personal tab
You can edit any tab online and save it as your Personal.

You can edit, replace or remove any tab part or add personal notes – all changes will be seen only by you.

Personal tabs can be accessed anytime from any device, even offline.
Learn more »
comments
print report bad tab
2 comments total.
0 reply
ustabawannab 10 May 03, 2013 03:07 AM

Pretty accurate from what I hear.

0 reply
BASSteve 1,495 Jun 22, 2015 05:21 PM

Sounds to me like you got all the transitions right. Nice job !

guest
You may want to rate the tab now too:
select rating
Wanna post a correction for this tab? Suggest correction