Oops, an error
Loading. Please wait.

And Then You tab

version 2
version 2

Whole song

19,703 views 15 this week
3 commentsread comments
1 2 3 4 5
x 14
add to favorites
×
Save as Personal and add changes to this tab that will be seen only by you. Learn more ›
×
You can save this tab as Personal to edit and correct it or add notes. All changes will be seen only by you. Learn more »
launch autoscroll
font size
0
reset
how to read this tab
guitar tuner
edit
Autoscroll
slow
fast
+/-
esc
set tempo
stop
Author
-------------------------------------------------------------------------------
                             AND THEN YOU - Greg Laswell
-------------------------------------------------------------------------------
Thanks so much, mooon, for getting giving me a place to start...
I took when you'd submitted and added a bit more.

Verse 1:
          how my thoughts they spin me round
e|---------------------------------------------------------------|
B|--------------------------0-----0----0h1---0-------------------|
G|--0-----0-----2-----2------------------------------------------|
D|----2-----2-----0-----0-----0-----0-----0----0-----------------|
A|---------------------------------------------------------------|
E|--2-----2-----2-----0-----3-----3----3-----3-------------------|

          and how my thoughts they let me down
e|---------------------------------------------------------------|
B|--------------------------0-----0----0h1---0-------------------|
G|--0-----0-----2-----2------------------------------------------|
D|----2-----2-----0-----0-----0-----0-----0----0-----------------|
A|---------------------------------------------------------------|
E|--2-----2-----2-----0-----3-----3----3-----3-------------------|

          and how my thoughts they spin me round
e|---------------------------------------------------------------|
B|--------1-0---------------0-----0----0h1---0-------------------|
G|--0-----------2-----2------------------------------------------|
D|----2-----------0-----0-----0-----0-----0----0-----------------|
A|---------------------------------------------------------------|
E|--0-----------2-----2-----3-----3----3-----3-------------------|


          and how my thoughts they let me down
e|---------------------------------------------------------------|
B|--------------------------0-----0----0----0--------------------|
G|--0-----0-----2-----2------------------------------------------|
D|----2-----2-----0-----0-----0-----0----0----0------------------|
A|---------------------------------------------------------------|
E|--0-----0-----2-----2-----3-----3----3----3--------------------|

Verse 2:
How my dreams they spin me 'round
And how my dreams they let me down
And how my thoughts they spin me 'round
And how my thoughts they let me down

Chorus:
       and then there's you, then there's you
e|---------------3----3----3---3----3----3----3----3-------------|
B|-----------------1----1----1---1----0----0----0----0-----------|
G|---------------------------------------------------------------|
D|---------------------------------------------------------------|
A|---------------------------------------------------------------|
E|---------------------------------------------------------------|

       and then there's you, there's you
e|------------3---------------2----0-----------------------------|
B|--------------1------------------------------------------------|
G|----------------------------2----0----0----0-------------------|
D|----------------------------------------2----2-----------------|
A|---------------------------------------------------------------|
E|----------------------------2----0----0----0-------------------|


Verse 3:
How my love it spins me 'round
And how my love it's let me down
And how my thoughts they spin me 'round
And how my thoughts they let me down

[Chorus]

Bridge:

          You know I know that you know
e|---------------------------------------------------------------|
B|--------------------------0-----0----0----0--------------------|
G|--2-----2-----2-----0------------------------------------------|
D|----0-----0-----0-----2-----0-----0----0----0------------------|
A|---------------------------------------------------------------|
E|--2-----2-----2-----0-----3-----3----3----3--------------------|

        I've written it all myself, if you can't tell
e|---------------------------------------------------------------|
B|--------------------------0-----0----0----0--------------------|
G|--2-----2-----2-----0------------------------------------------|
D|----0-----0-----0-----2-----0-----0----0----0------------------|
A|---------------------------------------------------------------|
E|--2-----2-----2-----0-----3-----3----3----3--------------------|

   With a melody that climbs and then falls, 
e|---------------------------------------------------------------|
B|--------------------------0-----0------------------------------|
G|--2-----2-----0-----0------------------------------------------|
D|----0-----0-----2-----2-----0-----0----------------------------|
A|---------------------------------------------------------------|
E|--2-----2-----0-----0-----3-----3------------------------------|

      then falls,    then falls        without... 
e|---------------------------------------------------------------|
B|----1-------1--------------------------------------------------|
G|-------2-------2----1-----1-----1-----1------------------------|
D|-----------------------0-----0-----0-----0---------------------|
A|----0-------0-------2-----2-----2-----2------------------------|
E|---------------------------------------------------------------|


    ...you                                without...
e|---------------------------------------------------------------|
B|-------------------0-------------------------------------------|
G|---0----0-----0----------2-----2-----2-----2-------------------|
D|-----2-----2----2----0------0-----0-----0-----0----------------|
A|---------------------------------------------------------------|
E|---0-----0----0----3-----2-----2-----2-----2-------------------|


    ...you
e|---------------------------------------------------------------|
B|-------------------0-------------------------------------------|
G|---0----0-----0----------2-----2-----2-----2-------------------|
D|-----2-----2----2----0------0-----0-----0-----0----------------|
A|---------------------------------------------------------------|
E|---0-----0----0----3-----2-----2-----2-----2-------------------|

Verse 4:
How my days they spin me 'round
And how today it sets me down
And how my days they spin me 'round
And how today it sets me down

Chorus:
Alongside you
Alongside you
Alongside you

===============================================================================

            
            
Suggest correction
Creating personal tab
Creating personal tab
You can edit any tab online and save it as your Personal.

You can edit, replace or remove any tab part or add personal notes – all changes will be seen only by you.

Personal tabs can be accessed anytime from any device, even offline.
Learn more »
comments
print report bad tab
3 comments total.
+5 reply
korey729 15 Sep 11, 2009 11:50 AM

I think that main riff starts with an open E, then 2nd fret, then 3rd fret. So:

------------------------------------------
----------------------0----0----0h1--0----
--0----0----2----2------------------------
----2----2----0----0----0----0----0----0--
------------------------------------------
--0----0----2----2----3----3----3----3----

0 reply
lilmiss.roberts 132 Jul 29, 2015 01:28 PM

I agree with this.

0 reply
sandizep 10 May 02, 2014 01:30 PM

Accidentally Voted Korey down but i agree with the open E^

guest
You may want to rate the tab now too:
select rating
Wanna post a correction for this tab? Suggest correction