Oops, an error
Loading. Please wait.

Comes And Goes In Waves tab

version 1
version 1

Whole song

134,438 views 132 this week
6 commentsread comments
1 2 3 4 5
x 43
add to favorites
×
Save as Personal and add changes to this tab that will be seen only by you. Learn more ›
×
You can save this tab as Personal to edit and correct it or add notes. All changes will be seen only by you. Learn more »
launch autoscroll
font size
0
reset
how to read this tab
guitar tuner
edit
Autoscroll
slow
fast
+/-
esc
set tempo
stop
Author
Play the tabbed parts along with the chords I have with
the lyrics at the bottom 
(Not by yourself, obviously. Play with a friend!),
or if you're flyin' solo,
just play the chords and sing,
it'll sound fine. Maybe switch between the two.
Yeah, that'd be nice. One of the verses,
play the tabbed part instead of the chords. 
I bet that would be real fine.


[Verse]

e|--------0----|-------0----|-------1----|-------1---|
B|-----1-----1-|----1-----1-|----1-----1-|----1-----1|
G|--2----------|-2----------|-2----------|-2---------|
D|-------------|------------|------------|-----------|
A|-------------|------------|------------|-----------|
E|-------------|------------|------------|-----------|

e|--------0----|-------0----|-------3----|-------3---|
B|-----1-----1-|----1-----1-|----1-----1-|----1-----1|
G|--0----------|-0----------|-0----------|-0---------|
D|-------------|------------|------------|-----------|
A|-------------|------------|------------|-----------|
E|-------------|------------|------------|-----------|


[Chorus]

e|--3--------3---|----3--------3---|----3--------3---|
B|--5-----------5|----5-----------5|----5-----------5|
G|-----5--5------|--5----5--5------|--5----5--5------|
D|---------------|-----------------|-----------------|
A|---------------|-----------------|-----------------|
E|---------------|-----------------|-----------------|

e|---------------|
B|------------5--|
G|--5--2--2-----5|
D|---------------|
A|---------------|
E|---------------|

e|------------------|------------------------|
B|-----5--------5---|------------------------|
G|--5-----5--5-----5|--------7-----------7---|
D|------------------|-----5-----5-----5-----5|
A|------------------|--7-----------7---------|
E|------------------|------------------------|

e|------------------------|----------------------------|
B|------------------------|----------------------------|
G|--------9-----------9--7|--------7--5--------5--2----|
D|-----5-----5-----5------|-----5-----------5----------|
A|--7-----------7---------|--7-----------7-------------|
E|------------------------|----------------------------|


[Verse 1]

  Am                    F
     This one's for the lonely
                            C
     The ones that seek and find
                G
     Only to be let down
                Am
     Time after time
                        F
     This one's for the torn down
                        C
     The experts at the fall
                        G
     Come on friends get up now
                         Am
     You're not alone at all
           F         C         G
     Oh oh oh, oh oh oh
     Am       F         C      G
     Oh oh oh oh, oh oh oh


[Chorus]

    F
     And this part was for her
   C/G
     This part was for her
    F
     This part was for her
   C/G
     Does she remember?
C       Am                  F
     It comes and goes in waves, i...


[Verse 2]

  Am                    F
     This one's for the faithless
                          C
     The ones that are surprised
                              G
     They are only where they are now
                         Am
     Regardless of their flight
                       F
     This one's for believing
                      C
     If only for it's sake
                         G
     Come on friends get up now
                   Am
     Love is to be made

           F         C         G
     Oh oh oh, oh oh oh
     Am       F         C      G
     Oh oh oh oh, oh oh oh


[Chorus]

    F
     And this part was for her
   C/G
     This part was for her
    F
     This part was for her
   C/G
     Does she remember?
C       Am                  F
     It comes and goes in waves, i...
C         Am               F
     I am only let to wonder why
C       Am                  F               
     It comes and goes in waves
C         Am               F
     I am only let to wonder why
     F
     Why I try


[Bridge]

Am                   F
     This is for the ones who stand
C                     G
     For the ones who try again
Am                    F
     For the ones who need a hand
C                     G
     For the ones who think they can


[Outro]

C       Am                  F
     It comes and goes in waves, i...
C         Am               F
     I am only let to wonder why
C       Am                  F               
     It comes and goes in waves
C         Am               F
     I am only let to wonder why
     F
     Why I try


(Mini-Lead)

e|--12--|    |--13--|    |--12--|    |--10--|
B|------|    |------|    |------|    |------|
G|------|    |------|    |------|    |------|
D|------|(x9)|------|(x9)|------|(x9)|------|(x9)
A|------|    |------|    |------|    |------|
E|------|    |------|    |------|    |------|


(Bells at the end)

e|--------------|-------------|--------------|------------|
B|--12--13--10--|--12--13--8--|--12--13--12--|--10--------|
G|--------------|-------------|--------------|------------|
D|--------------|-------------|--------------|------------|
A|--------------|-------------|--------------|------------|
E|--------------|-------------|--------------|------------|

            
            
Suggest correction
Creating personal tab
Creating personal tab
You can edit any tab online and save it as your Personal.

You can edit, replace or remove any tab part or add personal notes – all changes will be seen only by you.

Personal tabs can be accessed anytime from any device, even offline.
Learn more »
comments
print report bad tab
6 comments total. Showing first comments.
+2 reply
grey's anatomy 10 Jul 11, 2009 01:00 PM

at the "and this part was for her" part, i'm pretty sure the C/G should be Dm. and in the "It comes and goes in waves" the Am should be Em. but other than that great job! :]

+3 reply
Kaveman90 10 Dec 18, 2010 08:27 PM

e|--------0----|-------0----|-------1----|-------1---|
B|-----1-----1-|----1-----1-|----1-----1-|----1-----1|
G|--2----------|-2----------|-2----------|-2---------|
D|-------------|------------|------------|-----------|
A|-------------|------------|------------|-----------|
E|-------------|------------|------------|-----------|

e|--------0----|-------0----|------------|-----------|
B|-----1-----1-|----1-----1-|-------3----|-------3---|
G|--0----------|-0----------|----4-----4-|----4----4-|
D|-------------|------------|-5----------|-5---------|
A|-------------|------------|------------|-----------|
E|-------------|------------|------------|-----------|

This is the correct way to play the intro

-1 reply
Kaveman90 10 Dec 18, 2010 08:33 PM

e|--------0----|-------0----|-------1----|-------1---|
B|-----1-----1-|----1-----1-|----1-----1-|----1-----1|
G|--2----------|-2----------|-2----------|-2---------|
D|-------------|------------|------------|-----------|
A|-------------|------------|------------|-----------|
E|-------------|------------|------------|-----------|

e|--------0----|-------0----|------------|-----------|
B|-----1-----1-|----1-----1-|----0--3--0-|----0--3--0|
G|--0----------|-0----------|-0----------|-0---------|
D|-------------|------------|------------|-----------|
A|-------------|------------|------------|-----------|
E|-------------|------------|------------|-----------|

or if you want you could play it like this too

guest
You may want to rate the tab now too:
select rating
Wanna post a correction for this tab? Suggest correction