Oops, an error
Loading. Please wait.

Dodged A Bullet chords

version 1
version 1

Whole song

1,054 views 27 this week
no commentswrite comment
1 2 3 4 5
x 3
add to favorites
×
Save as Personal and add changes to this tab that will be seen only by you. Learn more ›
×
You can save this tab as Personal to edit and correct it or add notes. All changes will be seen only by you. Learn more »
launch autoscroll
font size
0
reset
transpose
0
reset
display chords
guitar tuner
edit
Autoscroll
slow
fast
+/-
esc
set tempo
stop
Author
Difficulty
Strumming
There is no strumming pattern for this song yet. and get +5 IQ
Listen to song for pick pattern; it is very straight forward. Main guitar plays Am C G D all the way through
The second guitar riff is tabbed below and it comes in where indicated and overlays first guitar
Also watch for the two vocal pitch changes if you are singing as well. 


[Intro]

Am C G D
Am C G D   

E|-------------------------------------------|Now add second guitar as tabbed; along with a repeat of chords
B|-------------------------------------------|percussion also enters
G|-----0----0-------------0----0-------------|
D|-2--4-------4--2-0-2-----------4--2-0-2----| 
A|-------------------------------------------|
E|-------------------------------------------|

Am C G D
Am C G D         [stop second guitar]


[Verse]

Am C              G               D             
    I'm not gonna try and make it even
Am      C          G       D      Am       
  You're way ahead by now
              C        G           D
I'm not gonna try and make it all even
Am   C        G      D
Even though   I know how

E|-------------------------------------------|Add second guitar with chorus 
B|-------------------------------------------|
G|-----0----0-------------0----0-------------|
D|-2--4-------4--2-0-2-----------4--2-0-2----|
A|-------------------------------------------|
E|-------------------------------------------|


[Chorus]

Am           C                 G        
And everyone thinks I dodged a bullet
       D
But I think I shot the gun
Am           C                 G        
And everyone thinks I dodged a bullet
      D
But I think I shot the gun                [stop second guitar]


[Verse]
(Raise vocal pitch on this verse)

Am C                      G           D
    I'm not gonna tell my new friends about you
Am    C         G        D        Am     
  No, I'm gonna let that slide
             C     G            D
I'm gonna be lazy when I write about you
Am   C               G      D
Even though it takes all my might

E|-------------------------------------------|Add second guitar with chorus and then the musical bridge
B|-------------------------------------------|
G|-----0----0-------------0----0-------------|
D|-2--4-------4--2-0-2-----------4--2-0-2----|
A|-------------------------------------------|
E|-------------------------------------------|


[Chorus]

Am           C                 G        
And everyone thinks I dodged a bullet
      D
But I think I shot the gun
Am           C                 G       
And everyone thinks I dodged a bullet
      D
But I think I shot the gun

E|-------------------------------------------|Repeat twice with musical bridge
B|-------------------------------------------|
G|-----0----0-------------0----0-------------|
D|-2--4-------4--2-0-2-----------4--2-0-2----|
A|-------------------------------------------|
E|-------------------------------------------|x2

Am C G D
Am C G D            [stop second guitar]


[Verse]

Am C                G     D
    I'm gonna get back to believing
Am     C            G         D       
  It's been a long, long time now           
Am            C      G            D
I'm gonna get up and make it look easy
Am   C        G          D
Even though I don't know how

E|-------------------------------------------|Repeat second guitar until end of music.
B|-------------------------------------------|
G|-----0----0-------------0----0-------------|
D|-2--4-------4--2-0-2-----------4--2-0-2----|
A|-------------------------------------------|
E|-------------------------------------------|


[Verse]
(Raise vocal pitch on this verse)

Am C              G               D       Am
    I'm not gonna try and make it even
    C          G        D
I'm way behind by now
Am                C       G           D
No, I'm not gonna try and make it all even
Am   C      G      D
Even though I know how


[Chorus]

Am           C                  G        
And everyone thinks I dodged a bullet
      D
But I think I shot the gun
Am           C                 G        
And everyone thinks I dodged a bullet
      D
But I think I shot the gun
Am           C                 G
And everyone thinks I dodged a bullet
      D
But I think I shot the gun

Am           C                 G        
And everyone thinks I dodged a bullet
      D                
But I think I shot the gun
Am           C                 G
And everyone thinks I dodged a bullet
      D
But I think I shot the gun
Am           C                 G        
And everyone thinks I dodged a bullet
      D
But I think I shot the gun


[Ending]
(Vocals only)

N.C.
And everyone thinks I dodged a bullet
N.C.   
But I think I shot the gun
N.C.    
And everyone thinks I dodged a bullet
N.C.  
But I think I shot the gun 

            
            
Suggest correction
Creating personal tab
Creating personal tab
You can edit any tab online and save it as your Personal.

You can edit, replace or remove any tab part or add personal notes – all changes will be seen only by you.

Personal tabs can be accessed anytime from any device, even offline.
Learn more »
Give kudos to tab author, rate the tab!
1 2 3 4 5
comments
print report bad tab
guest
You may want to rate the tab now too:
select rating
Wanna post a correction for this tab? Suggest correction