Oops, an error
Loading. Please wait.

A Wish tab

version 1
version 1

Whole song

Interactive

41,751 views 15 this week
6 commentsread comments
1 2 3 4 5
x 13
add to favorites
×
Save as Personal and add changes to this tab that will be seen only by you. Learn more ›
×
You can save this tab as Personal to edit and correct it or add notes. All changes will be seen only by you. Learn more »
launch autoscroll
font size
0
reset
how to read this tab
guitar tuner
edit
Autoscroll
slow
fast
+/-
esc
set tempo
stop
This is my first tab i ever submitted, and it's a really great song that should have been up long ago.


Here's all i can pick up so far (simplified, meaning without any fill-ins)
I'm having a bit of trouble, maybe someone can help/comment?

thewhalenguy@hotmail.com


CAPO 3RD FRET

VERSE
e------------------------------------------|
B--------3--------3--------3--------3------|Strange fill-in at last chord
G------0---0----0---0----0---0----0--------|change
D------------------------------------------|
A----3-------2--------0---------2----------|
E------------------------------------------|

CHORUS
e-----------------------------------------|
B--------3--------3--------3--------3-----|strum last chord before bridge
G------0---0----0---0----0---0----0---0---|and for outro
D-----------------------------------------|
A----3-------2--------1-------------------|
E-------------------------------3---------|

BRIDGE
e-----------------------------------------|
B----3--------3---------3-------3---------|Not very accurate,
G------0--------0--------0----------------|but best i can do.
D-----------------------------------------|
A----3--------2---------3-------0---------|
E-----------------------------------------|

COMMENT!

            
            
Suggest correction
Creating personal tab
Creating personal tab
You can edit any tab online and save it as your Personal.

You can edit, replace or remove any tab part or add personal notes – all changes will be seen only by you.

Personal tabs can be accessed anytime from any device, even offline.
Learn more »
comments
print report bad tab
6 comments total. Showing first comments.
0 reply
fuzzball_8 51 May 29, 2006 02:01 PM

lol i tried to submit my own verson of the tab but they rejected it so here are the correct changes:
e-----------------------------------------|
B--------3--------3--------1--------3-----|
G------0---0----0---0----0---0----0---(0)-|
D-----------------------------------------|
A----3-------2--------0---------2---------|
E-----------------------------------------|
notice on the third progression, it's first fret on the B string instead of the 3rd fret

and here's the bridge:

BRIDGE
e-----------------|
B----3------1-----|
G------0------(0)-|
D-----------------|
A----2------3-----|
E-----------------|

-1 reply
guitar-crazy 10 Sep 20, 2006 01:52 PM

i dont know when this comes in or stops.
it just doesnt sound like it should.
the rhythem or whatever sounds right though.
sorry.

+2 reply
jsaltz 31 Apr 12, 2007 07:36 PM

I think this one is better then the other..
they are both the same notes and what not, but she uses the 3rd fret capo on most songs so you get my vote..
and here's how I like to play it

Capo'd on 3rd fret

e----------------------------|
B-----3-----3-----3-----3----|
G----0-----0-----0-----0-----|
D---2-----0-----2-----0------|
A--3-----2-----0-----2-------|
E----------------------------|

guest
You may want to rate the tab now too:
select rating
Wanna post a correction for this tab? Suggest correction