Oops, an error
Loading. Please wait.

Season Poem tab

version 1
version 1

Whole song

8,116 views 6 this week
no commentswrite comment
1 2 3 4 5
x 4
add to favorites
×
Save as Personal and add changes to this tab that will be seen only by you. Learn more ›
×
You can save this tab as Personal to edit and correct it or add notes. All changes will be seen only by you. Learn more »
launch autoscroll
font size
0
reset
how to read this tab
guitar tuner
edit
Autoscroll
slow
fast
+/-
esc
set tempo
stop
-------------------------------------------------------------------------------
                             Season Poem--Gregory and the Hawk
-------------------------------------------------------------------------------
This is a beautifully written song but also quite difficult to 
play. I spoke with Meredith & she said she always plays the song 
on the 5th fret. I realized she must have recorded the song with
a bassist or another guitarist since it's practically impossible 
to play all the notes with a capo on the 5th. Thus, I've tabbed
the whole song with capo on the 4th for 1 guitar.

In the chorus, there's a piano for the melody, so some of the
notes are from that. You can strum the 2-note chords in Chorus 1
made from the A & D strings together if you desire.


Tabbed by:exterious
Email:exterious@gmail.com

Tuning:[D] A D [F] B e
Relative to capo on 4th fret

Verse:
  One      by      one    The days fall beside us               Like yellow leaves
e|--------0-----------------0----------------2------------------------|
B|-----------------2-----------------2---------------4-------5-------2|
F|--3--3h4---3--3h4---3--3h4---3--3h4---3--3----3--3----3--3----3--3--|
D|------------------------------------------2-------2-------2-------2-|
A|0-4-0----0-4-0----0-4-0----0-4-0------2-------2-------2-------2-----|
D|------------------------------------2---2-2-2---2-2-2---2-2-2---2-2-|

               We have           no conscience             Oh, what we're becoming
e|--------0-----------------0------------------------2----------------|
B|-----------------2-----------------2-------4---------------5-------2|
F|--3--3h4---3--3h4---3--3h4---3--3h4---3--3----3--3----3--3----3--3--|
D|------------------------------------------2-------2-------2-------2-|
A|0-4-0----0-4-0----0-4-0----0-4-0------2-------2-------2-------2-----|
D|------------------------------------2---2-2-2---2-2-2---2-2-2---2-2-|

e|---------------------------------------4-------0----------------|
B|-------4-------5-------5-------2--0--0----0--0----0--0-2--0--0-2|
F|--4--4----4--4----4--4----4--4----------------------------------|
D|------4-------4-------2-------2-------2-------2-------2-------2-|
A|--4-------4-------4-------4-------2-------2-------2-------2-----|
D|4---4---4---4---2---2-2-2---2-2-2---2-2-2---2-2-2---2-2-2---2-2-|

  Month   by     month  the rings on our tree trunks         Like old wise eyes
e|--------0-----------------0----------------2------------------------|
B|-----------------2-----------------2---------------4-------5-------2|
F|--3--3h4---3--3h4---3--3h4---3--3h4---3--3----3--3----3--3----3--3--|
D|------------------------------------------2-------2-------2-------2-|
A|0-4-0----0-4-0----0-4-0----0-4-0------2-------2-------2-------2-----|
D|------------------------------------2---2-2-2---2-2-2---2-2-2---2-2-|

                Grow wider        and winter       Lends them a dead disguise
e|--------0-----------------0----------------2------------------------|
B|-----------------2-----------------2---------------4-------5-------2|
F|--3--3h4---3--3h4---3--3h4---3--3h4---3--3----3--3----3--3----3--3--|
D|------------------------------------------2-------2-------2-------2-|
A|0-4-0----0-4-0----0-4-0----0-4-0------2-------2-------2-------2-----|
D|------------------------------------2---2-2-2---2-2-2---2-2-2---2-2-|

Bridge:
e|----------------------------------------------------------------|
B|--2----4--4----4--4----4--4----2--2----2--4----2--2----2--4----4|
F|-----3-------3-------3-------3-------3-------3-------3-------3--|
D|--2---2---2---2---2---2---2---2---2---2---2---2---2---2---2---2-|
A|4---4---4---4---4---4---4---4---2---2---2---2---2---2---2---2---|
D|----------------------------------------------------------------|


e|-----------------------------------------------2--2----7--7-----| 
B|--4----4--4----4--4----4--4----2--4----4--4---------------------|
F|-----3-------3-------3-------3-------3-------3-------3-------3--|
D|--2---2---2---2---2---2---2---2---2---2---2---2---2---2---2---2-|
A|4---4---4---4---4---4---4---4---2---2---2---2---2---2---2---2---|
D|----------------------------------------------------------------|

Chorus 1:
 Now time like an ocean knows tide like a notion to toss about the house and
                                                       lose inside the couch
e|----------------------------------------------------------------|
B|-------4-------5-------5-------2--0-----0-0---------------------|
F|--4--4----4--4----4--4----4--4-------3-3-----3-3--3--3-3--3--3-3|
D|------4-------4-------2-------2-------2-------2-------2-------2-|
A|--4-------4-------4-------4-------4---4---4---4---2---2---2---2-|
D|4---4---4---4---2---2-2-2---2-2-2---2---2---2---2---2-2-2---2-2-|

And piles of our thoughts run miles in the dark  just trying to get home
e|---------------------------------------4---------------0--------|
B|-------4-------5-------5-------2--0--0----0--0-2--0--0----0--0-2|
F|--4--4----4--4----4--4----4--4----------------------------------|
D|------4-------4-------2-------2-------2-------2-------2-------2-|
A|--4-------4-------4-------4-------2-------2-------2-------2-----|
D|4---4---4---4---2---2-2-2---2-2-2---2-2-2---2-2-2---2-2-2---2-2-|

Verse:
 Age        by       age        we rhyme with our seasons    Rehearsed routines
e|--------0-----------------0----------------2------------------------|
B|-----------------2-----------------2---------------4-------5-------2|
F|--3--3h4---3--3h4---3--3h4---3--3h4---3--3----3--3----3--3----3--3--|
D|------------------------------------------2-------2-------2-------2-|
A|0-4-0----0-4-0----0-4-0----0-4-0------2-------2-------2-------2-----|
D|------------------------------------2---2-2-2---2-2-2---2-2-2---2-2-|

             Still turning          and returning
e|--------0-----------------0----------------2------------------------|
B|-----------------2-----------------2---------------4-------5-------2|
F|--3--3h4---3--3h4---3--3h4---3--3h4---3--3----3--3----3--3----3--3--|
D|------------------------------------------2-------2-------2-------2-|
A|0-4-0----0-4-0----0-4-0----0-4-0------2-------2-------2-------2-----|
D|------------------------------------2---2-2-2---2-2-2---2-2-2---2-2-|

Bridge:  
e|-----------------------2--7-----|
B|--4----4--4----2--4-------------|
F|-----3-------3-------3-------3--|
D|--2---2---2---2---2---2---2---2-|
A|4---4---4---4---2---2---2---2---|
D|--------------------------------|

Chorus 2:
 Now time like an ocean knows tide like a notion to toss about the house and
                                                       lose inside the couch
e|---------------------------------------4-------0-------0--------|
B|-------4-------5-------5-------2--0--0----0--0----0--0-2--0--0-2|
F|--4--4----4--4----4--4----4--4----------------------------------|
D|------4-------4-------2-------2-------2-------2-------2-------2-|
A|--4-------4-------4-------4-------2-------2-------2-------2-----|
D|4---4---4---4---2---2-2-2---2-2-2---2-2-2---2-2-2---2-2-2---2-2-|

 And piles of our thoughts run miles in the dark  just trying to get home
e|---------------------------------------4-------0-------0--------|
B|-------4-------5-------5-------2--0--0----0--0----0--0-2--0--0-2|
F|--4--4----4--4----4--4----4--4----------------------------------|
D|------4-------4-------2-------2-------2-------2-------2-------2-|
A|--4-------4-------4-------4-------2-------2-------2-------2-----|
D|4---4---4---4---2---2-2-2---2-2-2---2-2-2---2-2-2---2-2-2---2-2-|

 Outro:
Now I'm wide as the ocean Now I bleed roses And you are just a mark on the
                                              map of my past  And I am a road
e|------------------2----2--2-----------------------7----7--7-----|
B|--4----4--4----2---------------2--2----2--2----2---------------2|
F|-----3-------3-------3-------3----3--3----3--3-------3-------3--|
D|--2---2---2---2---2---2---2---2-2---2-2-2---2-2---2---2---2---2-|
A|2---2---2---2---4---4---4---4-------------------2---2---2---2---|
D|----------------------------------------------------------------|

 I wind along alone  All day until the coast
e|------------------2----2--2--------------------7--7----7--7----7|
B|--4----4--4----2---------------2--2----2--2---------------------|
F|-----3-------3-------3-------3----3--3----3--3-------3-------3--|
D|--2---2---2---2---2---2---2---2-2---2-2-2---2-2---2---2---2---2-|
A|2---2---2---2---4---4---4---4-------------------2---2---2---2---|
D|----------------------------------------------------------------|

e|--7----7--7----4--4----4--4----7--7----7--7---------------------|
B|-----------------------------------------------4--4----4--4----2|
F|-----3-------3-------3-------3-------3-------3-------3-------3--|
D|--2---2---2---2---2---2---2---2---2---2---2---2---2---2---2---2-|
A|2---2---2---2---2---2---2---2---2---2---2---2---2---2---2---2---|
D|----------------------------------------------------------------|

e|-------------------------------------------------|
B|-------4---------5---------5----------2--------5-|
F|--4--4------4--4------4--4------4--4------3--3---|
D|------4---------4---------2---------2---------2--|
A|--4---------4---------4---------4---------2------|
D|4---4-----4---4-----2---2-2---2---2-2---2---2-2--|

            
            
Suggest correction
Creating personal tab
Creating personal tab
You can edit any tab online and save it as your Personal.

You can edit, replace or remove any tab part or add personal notes – all changes will be seen only by you.

Personal tabs can be accessed anytime from any device, even offline.
Learn more »
comments
print report bad tab
guest
You may want to rate the tab now too:
select rating
Wanna post a correction for this tab? Suggest correction