Oops, an error
Loading. Please wait.

Here For The Party bass

version 1
version 1

Whole song

Interactive

6,296 views 3 this week
1 commentread comment
1 2 3 4 5
x 4
add to favorites
×
Save as Personal and add changes to this tab that will be seen only by you. Learn more ›
×
You can save this tab as Personal to edit and correct it or add notes. All changes will be seen only by you. Learn more »
launch autoscroll
font size
0
reset
guitar tuner
edit
Autoscroll
slow
fast
+/-
esc
set tempo
stop
Author
ARTIST:GRETCHEN WILSON
SONG:HERE FOR THE PARTY
TABBED BY:Gary Hricewich

     GUITAR INTRO  2X
                                         
     BASS INTRO                     2X
G---|--------------|------------------|
D---|*-----0-----0-|-0-0-0-0-------3-*|
A---|*-------0-3---|---------3-2-0---*|
E---|--0-0---------|------------------|
                                         
                                                                           
     VERSE                                                           2X
G---|------------------------------|--------|--------|--------|---------|
D---|*-----------------------------|--------|--------|--------|--------*
A---|*-5-5-5-5-5-5-5-5-5-5-5-5-5-5-|-5--5-5-|-3--3-3-|-5--5-5-|-3--3-3-*|
E---|------------------------------|--------|--------|--------|---------|
                                                                           
                                         
    PRE CHORUS 
G---------------------------------------|
D---------------------------------------|
A---------------------------------------|
E---3-3-3-3-3-3-3-3-----5-5-5-5-5-5-5-5-|
                                         
                                                            
    CHORUS                 CHORUS END3X
G---|----------------------------------|-------------------|
D---|*--------------------------------*|-------------------|
A---|*-5--5-5--3--3-3--2--2-2--5--5-5-*|-5--5-5--3--3-3--2-|
E---|----------------------------------|-------------------|
                                                            
   INTRO 2X
   VERSE 2X
   PRE CHORUS
   CHORUS 4X                                                         
                                         
                                                  
    LEAD GUITAR                             4X
G---|------------------------------------------|
D---|*----------------------------------------*|
A---|*-5-5-5-5-3-3-3-3-2-2-2-2-5-5-5-5--------*|
E---|------------------------------------------|
                                                  
  PRE CHORUS//STOP!
  INTRO 4X//STOP!
  CHORUS 4X
  INTRO 8X//STOP/END                                                
                                                                           
                                         

            
            
Suggest correction
Creating personal tab
Creating personal tab
You can edit any tab online and save it as your Personal.

You can edit, replace or remove any tab part or add personal notes – all changes will be seen only by you.

Personal tabs can be accessed anytime from any device, even offline.
Learn more »
comments
print report bad tab
1 comment total.
0 reply
msibbald46 10 Nov 23, 2017 07:59 PM

ARTIST:GRETCHEN WILSON
SONG:HERE FOR THE PARTY
TABBED BY:Gary Hricewich

DROP D TUNING GUITAR INTRO 2X

BASS INTRO 2X
G---|---------------|-----------------|
D---|*--------------|----------------*|
A---|*-----5---3-5--|-----5-5-3-2-0--*|
D---|--0-0---0-----3|-0-0-------------|
^PULL

VERSE 2X
G---|------------------------------|--------|--------|--------|---------|
D---|*-----------------------------|--------|--------|--------|--------*
A---|*-5-5-5-5-5-5-5-5-5-5-5-5-5-5-|-5--5-5-|-3--3-3-|-5--5-5-|-3--3-3-*|
D---|------------------------------|--------|--------|--------|---------|


PRE CHORUS
G---------------------------------------|
D---------------------------------------|
A---------------------------------------|
D---5-5-5-5-5-5-5-5-----7-7-7-7-7-7-7-7-|


CHORUS CHORUS END3X
G---|----------------------------------|-------------------|
D---|*--------------------------------*|-------------------|
A---|*-5--5-5--3--3-3--2--2-2---------*|-5--5-5--3--3-3--2-|
D---|--------------------------3—-3-0--|-------------------|

INTRO 2X
VERSE 2X
PRE CHORUS
CHORUS 4X


LEAD GUITAR 4X
G---|------------------------------------------|
D---|*----------------------------------------*|
A---|*-5-5-5-5-3-3-3-3-2-2-2-2----------------*|
D---|--------------------------0-0-0-0---------|

PRE CHORUS//STOP!
INTRO 4X//STOP!
CHORUS 4X
INTRO 8X
I've been working on this tune for the last hour fixing this Bass TAB. First off it is drop D tuning. Tab is 100% correct now.

guest
You may want to rate the tab now too:
select rating
Wanna post a correction for this tab? Suggest correction